» » »

Katatonia - Disposession Bass

Artists:  A B C D E F G H I J K L M N O P Q R S T U V W X Y Z # 

Disposession Bass

(ver. 1) Click to play this song!
Katatonia
 Rating:
4/5 (4 votes)
                -------------------------------------------------------------------------------
-------------------------------------------------------------------------------


Tuning: Standard


OK. Well, I couldn't find any tabs for this song, so I figured I'd make my own.
it isn't perfect, but I think it works fine. See for yourself. Any CONSTRUCTIVE 
is
than welcome, but this is my first tab so go easy on me. Timing is displayed above the 
sections to help you follow it. Enjoy!


Intro 1     (00:19)
E|-44-66--|--------|
A|------44|-4-7/4--|
D|--------|--------|
G|--------|--------|     x1

Intro 2     (00:22)
E|-6-66-4-4444-4-|-6-66--------||
A|---------------|------4-4444-||
D|---------------|-------------||
G|---------------|-------------||

E|-6-66-4-4444-4-|-6-66--------||
A|---------------|------4-4446-||
D|---------------|-------------||
G|---------------|-------------||     x4

Bridge     (01:05)
E|-6-6-4-4|--------|-6-6-4-4|--------||
A|--------|-44-----|--------|-22-----||
D|--------|--------|--------|--------||
G|--------|--------|--------|--------||     x3

E|-6-6-4-4|--------|-6-6-4-4|-2-2-1-1||
A|--------|-44-----|--------|--------||
D|--------|--------|--------|--------||
G|--------|--------|--------|--------||     x1

Verse     (01:28)
E|-6-6-4--|-6-6----||
A|--------|-----4--||
D|--------|--------||
G|--------|--------||   x8

Chorus     (02:11)
E|-6-66-4-|4444-4--|-6-66---|--------||
A|--------|--------|------4-|4444----||
D|--------|--------|--------|--------||
G|--------|--------|--------|--------||

E|-6-66-4-|4444-4--|-6-66---|--------||
A|--------|--------|------4-|4446----||
D|--------|--------|--------|--------||
G|--------|--------|--------|--------||     x2

E|-6-6-4-4|--------|-6-6-4-4|--------||
A|--------|-44-----|--------|-22-----||
D|--------|--------|--------|--------||
G|--------|--------|--------|--------||     x3

E|-6-6-4-4|--------|-6-6-4-4|-2-2----||
A|--------|-44-----|--------|--------||
D|--------|--------|--------|--------||
G|--------|--------|--------|--------||     x1

Verse     (02:55)
E|-6-6-4--|-6-6----||
A|--------|-----4--||
D|--------|--------||
G|--------|--------||   x8

Chorus     (03:39)
E|-6-66-4-|4444-4--|-6-66---|--------||
A|--------|--------|------4-|4444----||
D|--------|--------|--------|--------||
G|--------|--------|--------|--------||

E|-6-66-4-|4444-4--|-6-66---|--------||
A|--------|--------|------4-|4446----||
D|--------|--------|--------|--------||
G|--------|--------|--------|--------||     x2


Outro     (04:00)
(THIS ISN'T ACTUALLY PLAYED, BUT I LIKE TO ADD IT IN. SYNC THE BASS WITH THE GUITAR.
NO BREAK BETWEEN THE CHORUS AND THIS BIT, SO LISTEN CLOSELY. YOU SHOULD BE ABLE TO TELL
TO PLAY...)
E|--------|--------|--------|--------|--------|--------|--------|--------|
A|6-------|6-------|6-------|4-------|4-------|6-------|6-------|8-------|
D|--------|--------|--------|--------|--------|--------|--------|--------|
G|--------|--------|--------|--------|--------|--------|--------|--------|

E|-6-6-4--||-6-6----||-----6--|
A|--------||-----4--||-4-6----|
D|--------||--------||--------|
G|--------||--------||--------|     x2

Chorus     (05:07)
E|-6-66-4-|4444-4--|-6-66---|--------||
A|--------|--------|------4-|4444----||
D|--------|--------|--------|--------||
G|--------|--------|--------|--------||

E|-6-66-4-|4444-4--|-6-66---|--------||
A|--------|--------|------4-|4446----||
D|--------|--------|--------|--------||
G|--------|--------|--------|--------||     x2

===============================================================================
            
Submit corrections

↑ Back to top | Tablatures and chords for acoustic guitar and electric guitar, ukulele, drums are parodies/interpretations of the original songs. You may use it for private study, scholarship, research or language learning purposes only