» » »

Kasabian - Rewired Bass

Artists:  A B C D E F G H I J K L M N O P Q R S T U V W X Y Z # 

Rewired Bass

(ver. 1) Click to play this song!
Kasabian
 Rating:
4/5 (4 votes)


 Rewired lessons Tabs too difficult? Try these video lessons and learn fast
 
                Saw there was no Bass tab up for this song by kasabian so decided to upload one. My 1st 
tab so please be nice :) Feel free to add corrections in the comments. Listen to the 
song for rhythm

Intro/Verse riff

G|-----------------------------------------------|
D|-----------------------------------------------|
A|----5-----------5-----------2-------/77-7-7----|
E|7-77--7---7-5-55--5---5-3-33--3--3-0---0-------|

Pre-chorus (At 0:42)

G|------------------------------------------------|
D|------------------------------------------------|
A|-------------------------/77-7-7----------------|
E|7-7-77-75-5-55-53-3-33-30---0-------------------|

Synth bit between pre-chorus and Chorus (can either keep strumming or play single notes, 
either way it sounds okay :))

G|------------------------------------------------|
D|------------------------------------------------|
A|------------------------------------------------|
E|-7------12-------3------7------12-----3--3-3-3-3|

Chorus
                                    x2 for second bit
G|-----------------------|-----------------------------|
D|-----------------------|-----------------------------|
A|-------55--------------|---------55------------------|
E|-77---------3-333-3----|--77------------3-333-3-3-3--|

"Gonna light 'em up.."

G|-----------------------------------------------------|
D|-----------------------------------------------------|
A|-7-77-77--10-1010-1010---7-77-77--10-1010-1010-------|
E|-----------------------------------------------3-----|

Middle-8

G|-------------------------------|
D|-------------------------------|
A|-7-7-7777-/10---7-7-7777-/8-8--|
E|-------------------------------|


There thats all the parts you need for the song :) Hope it helps!
            
Submit corrections



        Rewired lessons Hard to play? Try these video lessons and learn fast Rewired lessons
        
↑ Back to top | Tablatures and chords for acoustic guitar and electric guitar, ukulele, drums are parodies/interpretations of the original songs. You may use it for private study, scholarship, research or language learning purposes only