Home » K » Kasabian »

Kasabian - Put Your Life On It Tabs

Artists:  A B C D E F G H I J K L M N O P Q R S T U V W X Y Z # 

Put Your Life On It Tabs

(ver. 1) Click to play this song!
Kasabian
[Intro]

e|---------------------------------------------------------|
B|---------------------------------------------------------|
G|---------------------------------------------------------|
D|---------------------------------------------------------|
A|-2--2--3--2--2--2--3--2--2--2--3--2--2--2--3--2--2--2--3-|
E|-3--3--3--3--3--3--3--3--3--3--3--3--3--3--3--3--3--3--3-|


[Verse]

Put your life on it Put your life on my love We'll get right on it Like we always 
e|------------------------------------------------------------------------------------|
B|------------------------------------------------------------------------------------|
G|------------------------------------------------------------------------------------|
D|-------------------------------------4--4--4--5--4--4--4--5--4--4--4--5--4--4--4--5-|
A|-2--2--2--3--2--2--2--3--2--2--2--3--5--5--5--5--5--5--5--5--5--5--5--5--5--5--5--5-|
E|-3--3--3--3--3--3--3--3--3--3--3--3-------------------------------------------------|

could We can ride through it Take the rain out of the storm Take a chance on it What you waiting 
e|------------------------------------------------------------------------------------------------|
B|------------------------------------------------------------------------------------------------|
G|------------------------------------------------------------------------------------------------|
D|-------------------------------------------------4--4--4--5--4--4--4--5--4--4--4--5--4--4--4--5-|
A|-2--2--2--3--2--2--2--3--2--2--2--3--2--2--2--3--5--5--5--5--5--5--5--5--5--5--5--5--5--5--5--5-|
E|-3--3--3--3--3--3--3--3--3--3--3--3--3--3--3--3-------------------------------------------------|

 for Everybody wants you You don't even have to try
e|---------------------------------------------------------------------------|
B|---------------------------------------------------------------------------|
G|---------------------------------------------------------------------------|
D|-2--2--2--3--2--2--2--3--2--2--2--3--2--2--2--3----------------------------|
A|-3--3--3--3--3--3--3--3--3--3--3--3--3--3--3--3----------------------------|
E|---------------------------------------------------------------------------|


[Verse 2] Same as Verse 1 but strumming added in. Listen for rhythm. 

G
Put your light on it
                       D
Shine a light on your love
D
We were made for it
                             C
You've been sent here from above


C
Tell me can you feel it
                         D
Tell me can you feel it now


[Chorus]

    G
And I 
             D
wanna say I love you
               C
Won't let you down
                          D
You're never gonna be without
D
(It's never gonna stop, it's never gonna stop)


[Verse]

Put your life on it Put your life on my love Take a weight from it Take the weight out of your 
e|------------------------------------------------------------------------------------|
B|------------------------------------------------------------------------------------|
G|------------------------------------------------------------------------------------|
D|-------------------------------------4--4--4--5--4--4--4--5--4--4--4--5--4--4--4--5-|
A|-2--2--2--3--2--2--2--3--2--2--2--3--5--5--5--5--5--5--5--5--5--5--5--5--5--5--5--5-|
E|-3--3--3--3--3--3--3--3--3--3--3--3-------------------------------------------------|

world Get the car, we can run Get a jump on everyone No limit to my love No places I won't go 
e|------------------------------------------------------------------------------------------------|
B|------------------------------------------------------------------------------------------------|
G|------------------------------------------------------------------------------------------------|
D|-------------------------------------------------4--4--4--5--4--4--4--5--4--4--4--5--4--4--4--5-|
A|-2--2--2--3--2--2--2--3--2--2--2--3--2--2--2--3--5--5--5--5--5--5--5--5--5--5--5--5--5--5--5--5-|
E|-3--3--3--3--3--3--3--3--3--3--3--3--3--3--3--3-------------------------------------------------|

 C
Tell me can you feel it
                         G
Tell me can you feel it now
G
(No limit to my love, no places I won't go)

C
We're just gonna sing it
                          D
We're just gonna sing it loud

N.C.
(It's never gonna stop, it's never gonna stop)


[Chorus]

    G
And I 
             D
wanna say I love you
               C
Won't let you down
                          D
You're never gonna be without
D
(It's never gonna stop, it's never gonna stop)


    G              D
And I wanna say I love you
               C
Just one more time
                 D
Let me scream it out
D
(It's never gonna stop, it's never gonna stop)


    G               D
And I wanna say I love you
               C
Won't let you down
                          D
You're never gonna be without
D
(It's never gonna stop, it's never gonna stop)


    G              D
And I wanna say I love you
               C
Just one more time
                 D
Let me scream it out
D
(It's never gonna stop, it's never gonna stop)


    G              D
And I wanna say I love you
               C
Just one more time
                 D
Let me scream it out
D
(It's never gonna stop, it's never gonna stop)


G
Put your life on it
                     D
Put your life on my love
D
Put your life on it
                     G
Put your life on my love            
Submit corrections

↑ Back to top | Tablatures and chords for acoustic guitar and electric guitar, ukulele, drums are parodies/interpretations of the original songs. You may use it for private study, scholarship, research or language learning purposes only