» » »

Kasabian - Ladies And Gentlemen Bass

Artists:  A B C D E F G H I J K L M N O P Q R S T U V W X Y Z # 

Ladies And Gentlemen Bass

(ver. 2) Click to play this song!
Kasabian
 Rating:
4/5 (4 votes)


 Ladies And Gentlemen lessons Tabs too difficult? Try these video lessons and learn fast
 
                Band: Kasabian
Bassist: Chris Edwards
Tuning: Standard

Note! This tab has been corrected.

Intro and Verse:

G|-----------|-----------|-----------|-----------|
D|-----------|-----------|-----------|-----------|
A|2---2-----1|2---------1|2---------1|2----------|
E|-----4--24-|----24--24-|-----4--24-|-----4--2--|

G|-----------|-----------|-----------|----------------|
D|-----------|-----------|-----------|----------------|
A|2---------1|2----------|---4-------|----24-4--------|
E|-----4--24-|-----4--2--|0----4-----|0--------2-4----|

G|-----------|-----------|-----------------|---------------------|
D|-----------|-----------|-----------------|---------------------|
A|2---------1|2----------|---44-4----------|----24-4-------------|
E|-----4--24-|-----4--2--|0-------4--24-4--|0--------2-4--24-4--4|

G|-------------------------|
D|-------------------------|
A|----------------------4--|
E|2---2--2--2-2-2-2-2-2----|

Chorus:

G|--------------------------|--------------------------|
D|--------------------------|--------------------------|
A|2---22-2---2--------------|2---22-2-2-2--------------|
E|-------------4---44-4---2-|-------------4---44-4-4-2-|

G|--------------------------|--------------------------|
D|--------------------------|--------------------------|
A|2---22-2------------------|2---22-2-2----------------|
E|-----------2-4---44-4-4-2-|-----------2-4---44-4-4-2-|

G|--------------------------|--------------------------|
D|--------------------------|--------------------------|
A|2---22-2-2-2------------1-|2---22-2-2-2--------------|    
E|-------------4---44-2-4---|-------------4---44-4-4-2-|

Verse:

G|--------------------------|--------------------------|
D|--------------------------|--------------------------|
A|2-----------------------1-|2-------------------------|
E|-------------4------2-4---|-------------4------2-----|

G|--------------------------|--------------------------|
D|--------------------------|--------------------------|
A|2---22---2--------------1-|2---22---2----------------|
E|-------------4---44-2-4---|-------------4---42-------|


G|--------------------------------|--------------------------------|
D|--------------------------------|--------------------------------|
A|2-2-2-2/6-6-6-6-----------------|2-2-2-2/6-6-6-6-----------------|
E|----------------4-4-4-444-4-4-2-|----------------4-4-4-444-4-4-4-|

G|--------------------------------|
D|--------------------------------|
A|----------------1---2---4---6--/|
E|2-2-2--22-2-2-2-----------------|

Chorus:

G|--------------------------|--------------------------|
D|--------------------------|--------------------------|
A|2---22-2-2-2--------------|2---22-2-2-2--------------|
E|-------------4---44-4-4-2-|-------------4---44-2-4-2-|

G|--------------------------|--------------------------|
D|--------------------------|--------------------------|
A|2---22-2-2-2------------1-|2---22-2-2-2--------------|
E|-------------4---44-2-4---|-------------4---44-4-4-2-|

G|--------------------------|
D|--------------------------|
A|2---22-2-2-2--------------|  
E|-------------4---44-4-4-2-|

G|---------------|---------------|    |---------------|
D|---------------|---------------|    |---------------|
A|2-2-2-2-2-2-2-1|--------------1|    |2~-------------|
E|---------------|4-4-4-4-4-4-4--| x5 |---------------|

/  slide up
\  slide down
h  hammer-on
p  pull-off
~  let ring
            
Submit corrections



        Ladies And Gentlemen lessons Hard to play? Try these video lessons and learn fast Ladies And Gentlemen lessons
        
↑ Back to top | Tablatures and chords for acoustic guitar and electric guitar, ukulele, drums are parodies/interpretations of the original songs. You may use it for private study, scholarship, research or language learning purposes only