Home » K » Kasabian »

Kasabian - Bumblebeee Tabs

Artists:  A B C D E F G H I J K L M N O P Q R S T U V W X Y Z # 

Bumblebeee Tabs

(ver. 1) Click to play this song!
Kasabian
[Intro]

e||-----------------------------||
B||-----------------------------||
G||-----------------------------||
D||-----------------------------||
A||-----------------------------||
D||--0-0-0--0--0--0-0-0--8-7\---|| x2

e||-----------------------------|-----------------------------------||
B||-----------------------------|-----------------------------------||
G||-----------------------------|-----------------------------------||
D||-----------------------------|-----------------------------------||
A||-----------------------------|-----------------------------------||
D||--0-0-0--0--0--0-0-0--8-7\---|--0-0-0--0--0--10-12---12---10-12--|| x2


[Verse 1]

PM 
e|-----------------------------------------|-----------------------------------------|
B|-----------------------------------------|-----------------------------------------|
G|-----------------------------------------|-----------------------------------------|
D|-----------------------------------------|-----------------------------------------|
A|-----------------------------------------|-----------------------------------------|
D|--0--0--0--0--0--0--0--0--0--0--0--0--0--|--0--0--0--0--0--0--0--0--0--0--0--0--0--|

e|------------------------------------------|-----------------------------------------|
B|------------------------------------------|-----------------------------------------|
G|------------------------------------------|-----------------------------------------|
D|------------------------------------------|-----------------------------------------|
A|------------------------------------------|-----------------------------------------|
D|--10--10-10-10--10-10-10--10-10-10--10-10-|--0--0--0--0--0--0--0--0--0--0--0--0--0--|

e|-----------------------------------------|-----------------------------------------|
B|-----------------------------------------|-----------------------------------------|
G|-----------------------------------------|-----------------------------------------|
D|-----------------------------------------|-----------------------------------------|
A|-----------------------------------------|-----------------------------------------|
D|--0--0--0--0--0--0--0--0--0--0--0--0--0--|--0--0--0--0--0--0--0--0--0--0--0--0--0--|

e|------------------------------------------|---------------------------------|
B|------------------------------------------|---------------------------------|
G|------------------------------------------|---------------------------------|
D|------------------------------------------|---------------------------------|
A|------------------------------------------|-----------------------8--7------|
D|--10--10-10-10--10-10-10--10-10-10--10-10-|--0--0--0--0--0--0--0--------10--|

e|-----------------------------------------|-----------------------------------------|
B|-----------------------------------------|-----------------------------------------|
G|-----------------------------------------|-----------------------------------------|
D|-----------------------------------------|-----------------------------------------|
A|-----------------------------------------|-----------------------------------------|
D|--0--0--0--0--0--0--0--0--0--0--0--0--0--|--0--0--0--0--0--0--0--0--0--0--0--0--0--|

e|------------------------------------------|-----------------------------------------|
B|------------------------------------------|-----------------------------------------|
G|------------------------------------------|-----------------------------------------|
D|------------------------------------------|-----------------------------------------|
A|------------------------------------------|-----------------------------------------|
D|--10--10-10-10--10-10-10--10-10-10--10-10-|--0--0--0--0--0--0--0--0--0--0--0--0--0--|


[Chorus 1]

e||-----------------------------||
B||-----------------------------||
G||-----------------------------||
D||-----------------------------||
A||-----------------------------||
D||--0-0-0--0--0--0-0-0--8-7\---|| x2

e||-----------------------------|-----------------------------------||
B||-----------------------------|-----------------------------------||
G||-----------------------------|-----------------------------------||
D||-----------------------------|-----------------------------------||
A||-----------------------------|-----------------------------------||
D||--0-0-0--0--0--0-0-0--8-7\---|--0-0-0--0--0--10-12---12---10-12--|| x3


[Bridge]

e||-----------------------------------------||
B||-----------------------------------------||
G||-----------------------------------------||
D||-----------------------------------------||
A||-----------------------------------------||
D||--0--0--0--0--0--0--0--0--0--0--0--0--0--|| x4


[Verse 2]

e|-------------------|---------------|-------------------|------------------------|
B|-------------------|---------------|-------------------|------------------------|
G|--7----------------|--7------------|--5----------------|--12--10----7-----------|
D|--7----------------|--7------------|--5----------------|--12--10----7-----------|
A|--5----------------|--8------------|--3----------------|--10---8----5-----------|
D|-------------------|---------------|-------------------|------------------------|

e|-----------------------------|-----------------------|
B|-----------------------------|-----------------------|
G|--7--------------------------|--7--------------------|
D|--7--------------------------|--7--------------------|
A|--5--------------------------|--8--------------------|
D|-----------------------------|-----------------------|
 
e|-----------------------------|-----------------------|
B|-----------------------------|-----------------------|
G|--12-10--9--10--9--7-7--7----|--12-10--9--10--9------|
D|-----------------------------|-----------------------|
A|-----------------------------|-----------------------|
D|-----------------------------|-----------------------|

e|------------------------------|----------------------------------|
B|------------------------------|----------------------------------|
G|--5---------------------------|--12--10----7---------------------|
D|--5---------------------------|--12--10----7---------------------|
A|--3---------------------------|--10---8----5---------------------|
D|------------------------------|----------------------------------|
 
e|------------------------------|--------------------------------|
B|------------------------------|--------------------------------|
G|------9-10--9-10--9-10--9-10--|--------------------------------|
D|------------------------------|--10--12----10-12-14----14--12--|
A|------------------------------|--------------------------------|
D|------------------------------|--------------------------------|


[Reprise verse]

e||-----------------------------------------|-----------------------------------------|
B||-----------------------------------------|-----------------------------------------|
G||-----------------------------------------|-----------------------------------------|
D||-----------------------------------------|-----------------------------------------|
A||-----------------------------------------|-----------------------------------------|
D||--0--0--0--0--0--0--0--0--0--0--0--0--0--|--0--0--0--0--0--0--0--0--0--0--0--0--0--|

e|------------------------------------------|-----------------------------------------||
B|------------------------------------------|-----------------------------------------||
G|------------------------------------------|-----------------------------------------||
D|------------------------------------------|-----------------------------------------||
A|------------------------------------------|-----------------------------------------||
D|--10--10-10-10--10-10-10--10-10-10--10-10-|--0--0--0--0--0--0--0--0--0--0--0--0--0--|| x2


[Chorus 2]

e||-----------------------------||
B||-----------------------------||
G||-----------------------------||
D||-----------------------------||
A||-----------------------------||
D||--0-0-0--0--0--0-0-0--8-7\---|| x2

e||-----------------------------|-----------------------------------||
B||-----------------------------|-----------------------------------||
G||-----------------------------|-----------------------------------||
D||-----------------------------|-----------------------------------||
A||-----------------------------|-----------------------------------||
D||--0-0-0--0--0--0-0-0--8-7\---|--0-0-0--0--0--10-12---12---10-12--|| x2

e|-----------------------------|-----------------------------------|
B|-----------------------------|-----------------------------------|
G|-----------------------------|-----------------------------------|
D|-----------------------------|-----------------------------------|
A|-----------------------------|-----------------------------------|
D|--0-0-0--0--0--0-0-0--8-7\---|--0-0-0--0--0----------------------| 


[Solo]

e||--------------------------------------------||
B||--15-13-15--13-12-13------------------------||
G||----------------------14-12-10----12-10-----||
D||-------------------------------12-------12--||
A||--------------------------------------------||
D||--------------------------------------------|| x3

e|--13-12-13--12-10-12--------------------------|
B|----------------------15-13-15----13----------|
G|-------------------------------14----14-12-10-|
D|----------------------------------------------|
A|----------------------------------------------|
D|----------------------------------------------|


[Verse 3]

e|--1--1--1-1-1--1-1-1-1-1-1-1--|--0--0--0-0-0--0-0-0-0-0-0-0--|
B|--3--3--3-3-3--3-3-3-3-3-3-3--|--1--1--1-1-1--1-1-1-1-1-1-1--|
G|--2--2--2-2-2--2-2-2-2-2-2-2--|--0--0--0-0-0--0-0-0-0-0-0-0--|
D|--0--0--0-0-0--0-0-0-0-0-0-0--|--2--2--2-2-2--2-2-2-2-2-2-2--|
A|------------------------------|--3--3--3-3-3--3-3-3-3-3-3-3--|
D|------------------------------|------------------------------|

e|--3--3--3-3-3--3-3-3-3-3-3-3--|--1--1--1-1-1--1-1-1-1-1-1-1--|
B|--3--3--3-3-3--3-3-3-3-3-3-3--|--3--3--3-3-3--3-3-3-3-3-3-3--|
G|--4--4--4-4-4--4-4-4-4-4-4-4--|--2--2--2-2-2--2-2-2-2-2-2-2--|
D|--5--5--5-5-5--5-5-5-5-5-5-5--|--0--0--0-0-0--0-0-0-0-0-0-0--|
A|--5--5--5-5-5--5-5-5-5-5-5-5--|------------------------------|
D|--5--5--5-5-5--5-5-5-5-5-5-5--|------------------------------|

e|--1----1----1----1-1-1-1-|--0----0----0----0-0-0-0-|
B|--3----3----3----3-3-3-3-|--1----1----1----1-1-1-1-|
G|--2----2----2----2-2-2-2-|--0----0----0----0-0-0-0-|
D|--0----0----0----0-0-0-0-|--2----2----2----2-2-2-2-|
A|-------------------------|--3----3----3----3-3-3-3-|
D|-------------------------|-------------------------|

e|--3----3----3----3-3-3-3-|--1----1----1----1-1-1-1-|--1------------------|
B|--3----3----3----3-3-3-3-|--3----3----3----3-3-3-3-|--3------------------|
G|--4----4----4----4-4-4-4-|--2----2----2----2-2-2-2-|--2------------------|
D|--5----5----5----5-5-5-5-|--0----0----0----0-0-0-0-|--0------------------|
A|--5----5----5----5-5-5-5-|-------------------------|---------------------|
D|--5----5----5----5-5-5-5-|-------------------------|---------------------|


[Chorus 3]

e||-----------------------------||
B||-----------------------------||
G||-----------------------------||
D||-----------------------------||
A||-----------------------------||
D||--0-0-0--0--0--0-0-0--8-7\---|| x2

e||-----------------------------|-----------------------------------||
B||-----------------------------|-----------------------------------||
G||-----------------------------|-----------------------------------||
D||-----------------------------|-----------------------------------||
A||-----------------------------|-----------------------------------||
D||--0-0-0--0--0--0-0-0--8-7\---|--0-0-0--0--0--10-12---12---10-12--|| x3

e|-----------------------------------|---------------------------------|
B|-----------------------------------|---------------------------------|
G|-----------------------------------|---------------------------------|
D|-----------------------------------|---------------------------------|
A|-----------------------------------|---------------------------------|
D|--0-0-0--0--0--10-12---12---10-12--|--0-0-0--0--0--10-12---12--------|
 |
e|--------------------------------------------|--------------------------------------------|
B|--15-13-15--13-12-13------------------------|--15-13-15--13-12-13------------------------|
G|----------------------14-12-10----12-10-----|----------------------14-12-10----12-10-----|
D|-------------------------------12-------12--|-------------------------------12-------12--|
A|--------------------------------------------|--------------------------------------------|
D|--------------------------------------------|--------------------------------------------|            
Submit corrections

↑ Back to top | Tablatures and chords for acoustic guitar and electric guitar, ukulele, drums are parodies/interpretations of the original songs. You may use it for private study, scholarship, research or language learning purposes only