» » »

Kari Jobe - Steady My Heart Tabs

Artists:  A B C D E F G H I J K L M N O P Q R S T U V W X Y Z # 

Steady My Heart Tabs

(ver. 1) Click to play this song!
Kari Jobe
 Rating:
3.8/5 (26 votes)

 Steady My Heart lessons Tabs too difficult? Try these video lessons and learn fast
 
                Standard Tuning

Intro
Verse 1
Pre-Chorus
Chorus
Verse 2
Pre-Chorus
Chorus
Bridge
Pre-Chorus*
Chorus
Outro

Chord Directory above Simple Chord Chart, bottom of page

INTRO/VERSES (Palm Muting)
     G^                    C^ 
e|--------------------------------------------------|
B|--------------------------------------------------|
G|---2-4-4-2-4-4-2-4-----2-4-4-2-4-4-2-4------------|  x1 for Intro
D|---0-0-0-0-0-0-0-0-x2--0-0-0-0-0-0-0-0-x2---------|  x2 for Verses 1&2
A|-----------------------3-3-3-3-3-3-3-3------------|
E|---3-3-3-3-3-3-3-3--------------------------------|
[on the G string, use Pinky for 4th fret]
Verse 1
Wish it could be easy why is life so messy why is pain a part of us
There are days I feel like nothing ever goes right sometimes it just hurts so much

Verse 2
I’m not gonna worry I know that You've got me right inside the palm of your hand
Each and every moment what’s good and what gets broken happens just the way You plan

PRE-CHORUS (Palm Muting)
     Em*           D*          C*
e|---0--0--0--0-0--0--0--0--0--0--0--0--0--0~-----|
B|---0--0--0--0-0--0--0--0--0--0--0--0--0--0~-----|
G|---0--0--0--0-0--0--0--0--0--0--0--0--0--0~-----|  x1
D|---5--5--5--5h7--4--4--4--4--2--2--2--2--2~-----|
A|---7--7--7--7-7--5--5--5--5--3--3--3--3--3~-----|
E|------------------------------------------------|

You are here You're real
I know I can trust You


CHORUS
    G          D          Bm        C
e|--0----------0----------0---------0------|
B|--12---------7----------3---------5------|
G|--0----------0----------0---------0------|   x3 for Chorus
D|--12---------7----------4---------5------|
A|--10---------5----------2---------3------|
E|---------one full bar each---------------|

     Strum Pattern - |:|d-d-d-d-d-d-d-du|:| (one bar/measure) 
     (I have no idea if this is the proper way to write a strum pattern, but d=down,
     u=up, and of course there are variations)

Even when it hurts even when its hard even when it all just falls apart
I will run to You ‘cuz I know that You are lover of my soul healer of my scars
You steady my heart You steady my heart


BRIDGE
    D`    G/B`  C`
e|--0-----0-----0~--------|
B|--3-----3-----3~--------|
G|--2-----0-----0~--------|   x2
D|--0-----0-----0~--------|
A|--------0h2---0h3~------|
E|------------------------|
(Listen to the song for the strumming pattern, it’s a little tricky to write down)
And I will run to you and find refuge in your arms
And I will sing to you ‘cuz of everything you are


PRE-CHORUS* (Palm Muting)
     G^                  C^              C*/D*
e|----------------------------------------------------|
B|----------------------------------------------------|
G|---2-4-4-2-4-4-2-4-----2-4-4-2-4-4-2-0-0~-----------|
D|---0-0-0-0-0-0-0-0-x2--0-0-0-0-0-0-0-0-2/4~---------|
A|-----------------------3-3-3-3-3-3-3-3-3/5~---------|
E|---3-3-3-3-3-3-3-3----------------------------------|

You steady my heart You steady my heart


OUTRO (Palm Muting)
     G^                  C^
e|----------------------------------------------------|
B|----------------------------------------------------|
G|---2-4-4-2-4-4-2-4-----2-4-4-2-4-4-2-4-2-4-2-4~-----|
D|---0-0-0-0-0-0-0-0-x2--0-0-0-0-0-0-0-0-0-0-0-0~-----|
A|-----------------------3-3-3-3-3-3-3-3-3-3-3-3~-----|
E|---3-3-3-3-3-3-3-3----------------------------------|

I’m not gonna worry I know that you've got me right inside the palm of your hand

------------------------------

These are the different chords used in this song [in order too!], annotated by the little 
thingy’s next to them for identification (I have no idea the exact names and frankly don’t care)
Numbers in brackets (*) indicate the finger used in each position
(1)= Pointer Finger
(2)= Middle Finger
(3)= Ring Finger
(4)= Pinky

     G^     C^     Em*    D*     C*     G       D      Bm     C      D`     G/B`   C`    
e|-----------------0------0------0------0-------0------0------0------0------0------0-------|
B|-----------------0------0------0------12(4)---7(4)---3(2)---5(4)---3(3)---3(3)---3(3)----|
G|---2(1)---2(1)---0------0------0------0-------0------0------0------2(1)---0------0-------|
D|---0------0------5(1)---4(1)---2(1)---12(3)---7(3)---4(3)---5(3)---0------0------0-------|
A|---*------3(2)---7(3)---5(2)---3(2)---10(1)---5(1)---2(1)---3(1)----------2(1)---3(2)----|
E|---3(2)----------------------------------------------------------------------------------|


[Simple Chord Chart]

Verse 1
G^                                         C^
Wish it could be easy why is life so messy why is pain a part of us
G^                                                 C^
There are days I feel like nothing ever goes right sometimes it just hurts so much


Pre-Chorus
        Em*        D* 
You are here You're real
       C*
I know I can trust You


Chorus
             G                   D                 Bm             C  
Even when it hurts even when its hard even when it all just falls apart
            G                      D                   Bm                C      
I will run to You ‘cuz I know that You are lover of my soul healer of my scars
              G   D              Bm   C
You steady my heart You steady my heart


Verse 2
G^                                            C^   
I’m not gonna worry I know that You've got me right inside the palm of your hand
G^                                                     C^
Each and every moment what’s good and what gets broken happens just the way You plan

Pre-Chorus
        Em*         D*
You are here You’re real
       C*
I know I can trust You


Bridge
           D`                  G/B`           C`
And I will run to you and find refuge in your arms
           D`                  G/B`      C`
And I will sing to you ‘cuz of everything you are


Pre-Chorus*
              G^                 C^     C*/D*
You steady my heart You steady my heart


Outro
G^                                            C^   
I’m not gonna worry I know that you've got me right inside the palm of your hand


Intro
Verse 1
Pre-Chorus
Chorus
Verse 2
Pre-Chorus
Chorus
Bridge
Pre-Chorus*
Chorus
Outro            
Submit corrections


        Steady My Heart lessons Hard to play? Try these video lessons and learn fast Steady My Heart lessons
        
↑ Back to top | Tablatures and chords for acoustic guitar and electric guitar, ukulele, drums are parodies/interpretations of the original songs. You may use it for private study, scholarship, research or language learning purposes only