» » »

Kari Jobe - No Sweeter Name Tabs

Artists:  A B C D E F G H I J K L M N O P Q R S T U V W X Y Z # 

No Sweeter Name Tabs

(ver. 1) Click to play this song!
Kari Jobe
 Rating:
4.1/5 (24 votes)

 No Sweeter Name lessons Tabs too difficult? Try these video lessons and learn fast
 
                e|---------------------------------------------------------------------------|
B|---------------------------------------------------------------------------|
G|-----0--0----0-----------------0---0--------0--0-----0------------0---2----|
D|-4-----------------0---0---4---0---0--4-4-----------------0--0--4-0---0---4|
A|-4---2--2----2-----2---2---5----------5-0---2--2-----2----2--2--5---------5|
E|---------------------------------------------------------------------------|
   no sweeter name than the name of Jesus no sweeter name have i ever known no
e|---------------------------------------------------------------------------|
B|---------------------------------------------------------------------------|
G|--0--0-----0----------------0--0-------------------------------------------|
D|----------------0---0----4-------0-2---------------------------------------|
A|--2--2-----2----2---2----5--2--2-2-3---------------------------------------|
E|---------------------------------------------------------------------------|
   sweeter name than the name of Jesus (repeat)
e|---------------------------------------------------------------------------|
B|------0-----------------------0----------------0---------------------------|
G|------0---2---0---0----2-0----0----2--0----2---0---2---0----0----2--0------|
D|------0---2---0---0----2-0----0----2--0----4---0---2---0----0----2--0------|
A|----------3---2---2----3-2---------3--2----5-------3---2----2----3--2------|
E|---------------------------------------------------------------------------|
chorus You are the life to my heart and my soul You are the light to the 
e|---------------------------------------------------------------------------|
B|--0------------0-----0-----------------------0------------0------1---0-----|
G|--0---2----0---0-2---0---2---0--0----2---0---0----2---0---0--2---0---0---2-|
D|--0---4----0---0-4---0---2---0--0----2---0---0----4---0---0--4---2---0---0-|
A|------5----2-----5-------3---2--2----3---2--------5---2------5-------------|
E|---------------------------------------------------------------------------|
   darkness around me You are the hope to the hopeless and broken You are the 
e|---------------------------------------------------------------------------|
B|---------1---0-------------------------------------------------------------|
G|--0-2----0---0---2---0-----------------------------------------------------|
D|--0-0----2---0---4---0-----------------------------------------------------|
A|-----------------5---2-----------------------------------------------------|
E|---------------------------------------------------------------------------|
   only truth and the way
e|---------------------------------------------------------------------------|
B|--------0-----0---0------0-----0----0-----0--------------------------------|
G|--------0-0---0-2-0---0--0-2---0-2--0--0--0-----2--------------------------|
D|----------0-----0-----0----0-----0-----0--------0--------------------------|
A|---------------------------------------------------------------------------|
E|---------------------------------------------------------------------------|
bridge: Jesus Jesus Jesus Jesus Jesus Jesus Jesus Jesus             
Submit corrections


        No Sweeter Name lessons Hard to play? Try these video lessons and learn fast No Sweeter Name lessons
        
↑ Back to top | Tablatures and chords for acoustic guitar and electric guitar, ukulele, drums are parodies/interpretations of the original songs. You may use it for private study, scholarship, research or language learning purposes only