» » »

Kari Jobe - Let The Heavens Open Tabs

Artists:  A B C D E F G H I J K L M N O P Q R S T U V W X Y Z # 

Let The Heavens Open Tabs

(ver. 1) Click to play this song!
Kari Jobe
 Rating:
2.4/5 (30 votes)

 Let The Heavens Open  lessons Tabs too difficult? Try these video lessons and learn fast
 
                Capo 3

Main interlude riff:  (heard throughout song.

E|------11--10--11--10--10--8--|
B|--11-------------------------|
G|-----------------------------|
D|-----------------------------|
A|-----------------------------|
E|-----------------------------|

Chorus: (follows vocals)

E|---------------------------------------|
B|--8--10--11--8--10--11--8--10--11--10--|
G|---------------------------------------|
D|---------------------------------------|
A|---------------------------------------|
E|---------------------------------------|

Bridge:  (I through on a ton of delay and reverb and swell these notes in)

E|--10------10------|
B|------11------10--|
G|------------------|
D|------------------|
A|------------------|
E|------------------|

Main Riff:

E|------12--11--12--11--11--9--|
B|--12-------------------------|
G|-----------------------------|
D|-----------------------------|
A|-----------------------------|
E|-----------------------------|

Last time through, add

E|------12--11--12--11--11--9--7|
B|--12--------------------------|
G|------------------------------|
D|------------------------------|
A|------------------------------|
E|------------------------------|            
Submit corrections


        Let The Heavens Open  lessons Hard to play? Try these video lessons and learn fast Let The Heavens Open  lessons
        
↑ Back to top | Tablatures and chords for acoustic guitar and electric guitar, ukulele, drums are parodies/interpretations of the original songs. You may use it for private study, scholarship, research or language learning purposes only