» » »

Kari Jobe - I Am Not Alone Tabs

Artists:  A B C D E F G H I J K L M N O P Q R S T U V W X Y Z # 

I Am Not Alone Tabs

(ver. 1) Click to play this song!
Kari Jobe
 Rating:
4.3/5 (10 votes)

 I Am Not Alone  lessons Tabs too difficult? Try these video lessons and learn fast
 
                Intro finger picked guitar:

            C#m7
E|-----------------------------------------|
B|-----------0-------------------0---------|
G|--------4------4------------4------4-----|
D|-----2------------2------2------------2--|
A|--4------------------4-------------------|
E|-----------------------------------------|

            Asus
E|-----------------------------------------|
B|-----------0-------------------0---------|
G|--------4------4------------4------4-----|
D|-----2------------2------2------------2--|
A|--0------------------0-------------------|
E|-----------------------------------------|

          F#madd4
E|-----------------------------------------|
B|-----------0-------------------0---------|
G|--------2------2------------2------2-----|
D|-----4------------4------4------------4--|
A|-----------------------------------------|
E|--2------------------2-------------------|

            C#m7                    Bsus
E|-----------------------------------------|
B|-----------0-------------------0---------|
G|--------4------4------------4------4-----|
D|-----2------------2------4------------4--|
A|--4-------------------2------------------|
E|-----------------------------------------|

When I walk through deep waters
I know that You will be with me
When I'm standing in the fire
I will not be overcome
Through the valley of the shadow
I will not fear

I am not alone
I am not alone
You will go before me
You will never leave me [2x]

In the midst of deep sorrow
I see Your light is breaking through
The dark of night will not overtake me
I am pressing into You
Lord, You fight my every battle
And I will not fear

I am not alone
I am not alone
You will go before me
You will never leave me [2x]
 
You amaze me
Redeem me
You call me as Your own [4x]

You're my strength
You're my defender
You're my refuge in the storm
Through these trials
You've always been faithful
You bring healing to my soul

I am not alone
I am not alone
You will go before me
You will never leave me [3x]            
Submit corrections


        I Am Not Alone  lessons Hard to play? Try these video lessons and learn fast I Am Not Alone  lessons
        
↑ Back to top | Tablatures and chords for acoustic guitar and electric guitar, ukulele, drums are parodies/interpretations of the original songs. You may use it for private study, scholarship, research or language learning purposes only