» » »

Kari Jobe - Hands To The Heavens Tabs

Artists:  A B C D E F G H I J K L M N O P Q R S T U V W X Y Z # 

Hands To The Heavens Tabs

(ver. 1) Click to play this song!
Kari Jobe
 Rating:
3/5 (23 votes)

 Hands To The Heavens  lessons Tabs too difficult? Try these video lessons and learn fast
 
                INTRO:
 
E|----------------------------|
B|-----7------7------9------7-|
G|---9------9------9------9---|
D|-9------9------9------9-----|
A|----------------------------|
E|----------------------------|
 
We lift our eyes
We lay our hearts before You
Expectant here for You to move

INTRO:

E|----------------------------|
B|-----7------7------9------7-|
G|---9------9------9------9---|
D|-9------9------9------9-----|
A|----------------------------|
E|----------------------------|

CHORUS:

With our hands to the Heavens
Alive in Your presence
Oh God, when You come
So pour out Your Spirit
We love to be near You
Oh God, when You come

CHORUS:
 
E|----9-12---------|
B|-10------12-(2x)-|
G|-----------------|
D|-----------------|
A|-----------------|
E|-----------------|


You are the way
The truth and life we live for
Oh how we long to know You more
E|----------------------------|
B|-----7------7------9------7-|
G|---9------9------9------9---|
D|-9------9------9------9-----|
A|----------------------------|
E|----------------------------|

With our hands to the Heavens
Alive in Your presence
Oh God, when You come
So pour out Your Spirit
We love to be near You
Oh God, when You come [x2]
E|----9-12---------|
B|-10------12-(2x)-|
G|-----------------|
D|-----------------|
A|-----------------|
E|-----------------|

BRIDGE:
Come like a rushing wind
Come light the fire again
Come like a burning flame
Have Your way
Have Your way [x3]

BRIDGE:
 
E|-----9-------------9--------------|
B|---9--------9----9--------7--(3x)-|
G|-9--------9----9--------9---------|
D|--------9-------------9-----------|
A|----------------------------------|
E|----------------------------------|


With our hands to the Heavens
Alive in Your presence
Oh God, when You come
So pour out Your Spirit
We love to be near You
Oh God, when You come [x2]

Come like a rushing wind
Come light the fire again
Come like a burning flame
Have Your way
Have Your way [x4]


////////////////////////////////////////////////////////////////////
Guitar 2 CAPO 6

Come like a rushing wind
Come light the fire again
Come like a burning flame
Have Your way
Have Your way [x3]

BRIDGE:

E|-----------------------------------------------------------------|
B|-------5-------5-------5-------5-------5-------5-------5-------5-|
G|---7-------7-------5-------5-------7-------7-------7-------7-----|
D|-5---5---5---5---5---5---5---5---5---5---5---5---5---5---5---5---|
A|-----------------------------------------------------------------|
E|-----------------------------------------------------------------|


ENDING BRIDGE:

Come like a rushing wind
Come light the fire again
Come like a burning flame
Have Your way
Have Your way [x3]

E|----------------------------------------------------------------|
B|-------6------5-------5-------5-------5-------5-------5-------5-|
G|---5------5-------5-------5-------5-------5-------7-------7-----|
D|-7---7--7---7---7---7---7---7---5---5---5---5---5---5---5---5---|
A|----------------------------------------------------------------|
E|----------------------------------------------------------------|

Come like a rushing wind
Come light the fire again
Come like a burning flame
Have Your way
Have Your way [x4]

E|----------------------------------------------------------------|
B|-------6------5-------5-------5-------5-------5-------5-------5-|
G|---5------5-------5-------5-------5-------5-------7-------7-----|
D|-7---7--7---7---7---7---7---7---5---5---5---5---5---5---5---5---|
A|----------------------------------------------------------------|
E|----------------------------------------------------------------|            
Submit corrections


        Hands To The Heavens  lessons Hard to play? Try these video lessons and learn fast Hands To The Heavens  lessons
        
↑ Back to top | Tablatures and chords for acoustic guitar and electric guitar, ukulele, drums are parodies/interpretations of the original songs. You may use it for private study, scholarship, research or language learning purposes only