» » »

Kari Jobe - Forever Tabs

Artists:  A B C D E F G H I J K L M N O P Q R S T U V W X Y Z # 

Forever Tabs

(ver. 1) Click to play this song!
Kari Jobe
 Rating:
2.9/5 (24 votes)

 Forever  lessons Tabs too difficult? Try these video lessons and learn fast
 
                Tuning: Standard
Intro
e|------7--------7-----------------------------------------------------------|
B|--7-8---7--7-8---5---------------------------------------------------------|
G|---------------------------------------------------------------------------|
D|---------------------------------------------------------------------------|
A|---------------------------------------------------------------------------|
E|---------------------------------------------------------------------------|
Verse
e|---------------------------------------------------------------------------|
B|---8(Till the end of eternity)---------------------------------------------|
G|---------------------------------------------------------------------------|
D|---------------------------------------------------------------------------|
A|---------------------------------------------------------------------------|
E|---------------------------------------------------------------------------|
PreChorus
e|---------------------------------------------------------------------------|
B|---------------------------------------------------------------------------|
G|---------------------7-------7-----------------------5-------5-------------|
D|-----5-------5-----7---7---7---7-----2-------2-----5---5---5---5-----------|
A|---5---5---5---5-5-------5---------2---2---2---2-3-------3-----------------|
E|-3-------3-----------------------0-------0---------------------------------|

e|---------------------------------------------------------------------------|
B|---------------------------------------------------------------------------|
G|---------------------7-------7-----------------------5-------5-------------|
D|-----5-------5-----7---7---7---7-----2-------2-----5---5---5---5-----------|
A|---5---5---5---5-5-------5---------2---2---2---2-3-------3-----------------|
E|-3-------3-----------------------0-------0---------------------------------|
Chorus
e|---------------------------------------------------------------------------|
B|---------------------------------------------------------------------------|
G|------------------7----------------------------5---------------------------|
D|----5-------------7--------------2-------------5---------------------------|
A|----5-------------5--------------2-------------3---------------------------|
E|----3----------------------------0-----------------------------------------|
      Forever he is glorified     Forever he is lifted high
e|---------------------------------------------------------------------------|
B|---------------------------------------------------------------------------|
G|------------------7-------------------------------5------------------------|
D|----5-------------7------------------2------------5------------------------|
A|----5-------------5------------------2------------3------------------------|
E|----3--------------------------------0-------------------------------------|
      Forever he is risen        He is alive, He is alive!            
Submit corrections


        Forever  lessons Hard to play? Try these video lessons and learn fast Forever  lessons
        
↑ Back to top | Tablatures and chords for acoustic guitar and electric guitar, ukulele, drums are parodies/interpretations of the original songs. You may use it for private study, scholarship, research or language learning purposes only