» » »

Kari Jobe - Fall Afresh Tabs

Artists:  A B C D E F G H I J K L M N O P Q R S T U V W X Y Z # 

Fall Afresh Tabs

(ver. 1) Click to play this song!
Kari Jobe
 Rating:
4.3/5 (29 votes)

 Fall Afresh  lessons Tabs too difficult? Try these video lessons and learn fast
 
                [Intro]
e|-2-----------3----------|-2----------------|
B|-3--------2--0----------|-3----------------|
G|-2-----2-----0----------|-2-----2--2-------|
D|-4--0--------0-----4--4-|-0--0--------2--2-|
A|-2-----------0----------|------------------|
E|-x-----------3--3-------|------------------|

e|-2-----------3----------|-2----------------|
B|-3--------2--0----------|-3----------------|
G|-2-----2-----0----------|-2-----2--2-------|
D|-4--0--------0-----4--4-|-0--0--------2--2-|
A|-2-----------0----------|------------------|
E|-x-----------3--3-------|------------------|

[Verse 1]
e|-2----------------------|-3-------|-2-------------------|-0----|
B|-3----------------------|-0-------|-3-------------------|-3----|
G|-2----------------------|-0-------|-2-------------------|-2----|
D|-4--2--2--0--0--0--4--4-|-0-------|-0--2--2--0--0--0--2-|-2--2-|
A|-2----------------------|-0--0--0-|---------------------|-0----|
E|------------------------|-3-------|---------------------|------|

e|-2----------------------|-3-------|-2-------------------------|-0-------|
B|-3----------------------|-0-------|-3-------------------------|-3-------|
G|-2----------------------|-0-------|-2-------------------------|-2-----2-|
D|-4--2--2--0--0--0--4--4-|-0-------|-0--2--2--0--0--0--0--2--2-|-2--0----|
A|-2----------------------|-0--0--0-|---------------------------|-0-------|
E|------------------------|-3-------|---------------------------|---------|

[Chorus]
e|-3----------------|-0----------------|-2----------------|
B|-0----------------|-3----------------|-3----------------|
G|-0--0--0----------|-2----------------|-2--0--0----------|
D|-0--------4--4--2-|-2--0--2--4--0--0-|-4--------4--4--2-|
A|-0----------------|-0----------------|-2----------------|
E|-3----------------|------------------|------------------|

e|-0-----2----------|-3----------------|-0-------------------|-2--3-|-2--2--2--2-|
B|-3-----3----------|-0----------------|-3-------------------|-3--0-|-3--3--3--3-|
G|-2-----2----------|-0--0--0----------|-2-----------0-------|-2--0-|-2--2--2--2-|
D|-2--0--4--2--0--0-|-0--------4--4--2-|-2--0--2--4-----4--4-|-4--0-|-0--0--0--0-|
A|-0----------------|-0----------------|-0-------------------|-2--0-|------------|
E|------------------|-3----------------|---------------------|----3-|------------|

[Verse 2]
e|-2----------------------|-3-------|-2-------------------------|-0-------|
B|-3----------------------|-0-------|-3-------------------------|-3-------|
G|-2----------------------|-0-------|-2-------------------------|-2-------|
D|-4--2--2--0--0--0--4--4-|-0-------|-0--2--2--0--0--0--0--2--2-|-2--0--4-|
A|-2----------------------|-0--0--0-|---------------------------|-0-------|
E|------------------------|-3-------|---------------------------|---------|

e|-2-------------------------|-3-------------|-2----------------------|-0-------|
B|-3-------------------------|-0-------------|-3----------------------|-3-------|
G|-2-------------------------|-0-----------2-|-2-----0----------------|-2-----2-|
D|-4--2--2--0--0--0--0--4--4-|-0--------0----|-0--4-----4--2-----0--2-|-2--0----|
A|-2-------------------------|-0--0--0-------|----------------0-------|-0-------|
E|---------------------------|-3-------------|------------------------|---------|

[Chorus]
e|-3----------------|-0----------------|-2----------------|
B|-0----------------|-3----------------|-3----------------|
G|-0--0--0----------|-2----------------|-2--0--0----------|
D|-0--------4--4--2-|-2--0--2--4--0--0-|-4--------4--4--2-|
A|-0----------------|-0----------------|-2----------------|
E|-3----------------|------------------|------------------|

e|-0-----2----------|-3----------------|-0-------------------|-2--3-|-2-------|
B|-3-----3----------|-0----------------|-3-------------------|-3--0-|-3-------|
G|-2-----2----------|-0--0--0----------|-2-----------0-------|-2--0-|-2-----2-|
D|-2--0--4--2--0--0-|-0--------4--4--2-|-2--0--2--4-----4--4-|-4--0-|-0--0----|
A|-0----------------|-0----------------|-0-------------------|-2--0-|---------|
E|------------------|-3----------------|---------------------|----3-|---------|

e|-3----------------|-0----------------|-2----------------|
B|-0----------------|-3----------------|-3----------------|
G|-0--0--0----------|-2----------------|-2--0--0----------|
D|-0--------4--4--2-|-2--0--2--4--0--0-|-4--------4--4--2-|
A|-0----------------|-0----------------|-2----------------|
E|-3----------------|------------------|------------------|

e|-0-----2----------|-3----------------|-0-------------------|-2--3-|
B|-3-----3----------|-0----------------|-3-------------------|-3--0-|
G|-2-----2----------|-0--0--0----------|-2-----------0-------|-2--0-|
D|-2--0--4--2--0--0-|-0--------4--4--2-|-2--0--2--4-----4--4-|-4--0-|
A|-0----------------|-0----------------|-0-------------------|-2--0-|
E|------------------|-3----------------|---------------------|----3-|

e|-2-------------------|-2--3-|-2--2--2--2-|
B|-3-------------------|-3--0-|-3--3--3--3-|
G|-2-----------0-------|-2--0-|-2--2--2--2-|
D|-0--0--2--4-----4--4-|-4--0-|-0--0--0--0-|
A|---------------------|-2--0-|------------|
E|---------------------|----3-|------------|

[Bridge]
e|-2-------------|-0-------------|--2--|-2--2--2--2-|
B|-3--0----------|-2--0----------|--3--|-3--3--3--3-|
G|-0-------------|-2-------------|--2--|-2--2--2--2-|
D|-0-----4--2--2-|-2-----4--2--4-|--4--|-4--4--4--4-|
A|---------------|-0-------------|--2--|-2--2--2--2-|
E|---------------|---------------|-----|------------|

e|-2-------------|-0-------------|--2--|-2--2--2--2-|
B|-3--0----------|-2--0----------|--3--|-3--3--3--3-|
G|-0-------------|-2-------------|--2--|-2--2--2--2-|
D|-0-----4--2--2-|-2-----4--2--4-|--4--|-4--4--4--4-|
A|---------------|-0-------------|--2--|-2--2--2--2-|
E|---------------|---------------|-----|------------|

e|-2-------------|-0-------------|--2--|-2--2--2--2-|
B|-3--0----------|-2--0----------|--3--|-3--3--3--3-|
G|-0-------------|-2-------------|--2--|-2--2--2--2-|
D|-0-----4--2--2-|-2-----4--2--4-|--4--|-4--4--4--4-|
A|---------------|-0-------------|--2--|-2--2--2--2-|
E|---------------|---------------|-----|------------|

e|-2-------------|-0-------------|--2--|-2--2--2--2-|
B|-3--0----------|-2--0----------|--3--|-3--3--3--3-|
G|-0-------------|-2-------------|--2--|-2--2--2--2-|
D|-0-----4--2--2-|-2-----4--2--4-|--4--|-4--4--4--4-|
A|---------------|-0-------------|--2--|-2--2--2--2-|
E|---------------|---------------|-----|------------|

e|-2-------------|-0-------------|--2--|-2--2--2--2-|
B|-3--0----------|-2--0----------|--3--|-3--3--3--3-|
G|-0-------------|-2-------------|--2--|-2--2--2--2-|
D|-0-----4--2--2-|-2-----4--2--4-|--4--|-4--4--4--4-|
A|---------------|-0-------------|--2--|-2--2--2--2-|
E|---------------|---------------|-----|------------|

e|-2-------------|-0-------------|-2-------|
B|-3--0----------|-2--0----------|-3-------|
G|-0-------------|-2-------------|-2-----2-|
D|-0-----4--2--2-|-2-----4--2--4-|-4--0----|
A|---------------|-0-------------|-2-------|
E|---------------|---------------|---------|

[Chorus]
e|-3----------------|-0----------------|-2----------------|
B|-0----------------|-3----------------|-3----------------|
G|-0--0--0----------|-2----------------|-2--0--0----------|
D|-0--------4--4--2-|-2--0--2--4--0--0-|-4--------4--4--2-|
A|-0----------------|-0----------------|-2----------------|
E|-3----------------|------------------|------------------|

e|-0-----2----------|-3----------------|-0-------------------|-2--3-|-2-------|
B|-3-----3----------|-0----------------|-3-------------------|-3--0-|-3-------|
G|-2-----2----------|-0--0--0----------|-2-----------0-------|-2--0-|-2-----2-|
D|-2--0--4--2--0--0-|-0--------4--4--2-|-2--0--2--4-----4--4-|-4--0-|-0--0----|
A|-0----------------|-0----------------|-0-------------------|-2--0-|---------|
E|------------------|-3----------------|---------------------|----3-|---------|

e|-3----------------|-0----------------|-2----------------|
B|-0----------------|-3----------------|-3----------------|
G|-0--0--0----------|-2----------------|-2--0--0----------|
D|-0--------4--4--2-|-2--0--2--4--0--0-|-4--------4--4--2-|
A|-0----------------|-0----------------|-2----------------|
E|-3----------------|------------------|------------------|

e|-0-----2----------|-3----------------|-0-------------------|-2--3-|
B|-3-----3----------|-0----------------|-3-------------------|-3--0-|
G|-2-----2----------|-0--0--0----------|-2-----------0-------|-2--0-|
D|-2--0--4--2--0--0-|-0--------4--4--2-|-2--0--2--4-----4--4-|-4--0-|
A|-0----------------|-0----------------|-0-------------------|-2--0-|
E|------------------|-3----------------|---------------------|----3-|

[Outro]
e|-2----------------|-2--3-|-2----------------|-2--3-|
B|-3----------------|-3--0-|-3----------------|-3--0-|
G|-2--------0-------|-2--0-|-2--------0-------|-2--0-|
D|-0--2--4-----4--4-|-4--0-|-0--2--4-----4--4-|-4--0-|
A|------------------|-2--0-|------------------|-2--0-|
E|------------------|----3-|------------------|----3-|

e|-2----------------|-2--3-|--2--|
B|-3----------------|-3--0-|--3--|
G|-2--------0-------|-2--0-|--2--|
D|-0--2--4-----4--4-|-4--0-|--0--|
A|------------------|-2--0-|-----|
E|------------------|----3-|-----|            
Submit corrections


        Fall Afresh  lessons Hard to play? Try these video lessons and learn fast Fall Afresh  lessons
        
↑ Back to top | Tablatures and chords for acoustic guitar and electric guitar, ukulele, drums are parodies/interpretations of the original songs. You may use it for private study, scholarship, research or language learning purposes only