» » »

Kari Jobe - Breathe On Us Tabs

Artists:  A B C D E F G H I J K L M N O P Q R S T U V W X Y Z # 

Breathe On Us Tabs

(ver. 1) Click to play this song!
Kari Jobe
 Rating:
3.7/5 (24 votes)

 Breathe On Us  lessons Tabs too difficult? Try these video lessons and learn fast
 
                Tuning: A
Intro/Verse
e|---------------------------------------------------------------------------|
B|--14--14--14--14--17p14--14--14--14--17p14--14--14--14--17--19-------------|
G|----14--14--14--14-----14--14--14--14-----14--14--14--14-------------------|
D|---------------------------------------------------------------------------|
A|---------------------------------------------------------------------------|
E|---------------------------------------------------------------------------|
Chorus
e|---------------------------------------------------------------------------|
B|---------------------------------------------------------------------------|
G|---4(x8)-7(x8)------------7-------------2----------------------------------|
D|---4(x8)-7(x8)----7-------7--7----------2----------------------------------|
A|---2(x8)-5(x8)----7--7/9--5--7--7/9--7--0--7/9--7--------------------------|
E|------------------5----------5---------------------------------------------|
Hook
e|--------12-12-12------------12-12-12---------------------------------------|
B|---12h14---------14----12h14---------14-12-(10)----------------------------|
G|---------------------------------------------------------------------------|
D|---------------------------------------------------------------------------|
A|---------------------------------------------------------------------------|
E|---------------------------------------------------------------------------|
Bridge Quiet
e|---------------------------------------------------------------------------|
B|---14------15------14------17----------------------------------------------|
G|-----14------14------14------16--------------------------------------------|
D|---------------------------------------------------------------------------|
A|---------------------------------------------------------------------------|
E|---------------------------------------------------------------------------|
Bridge Loud
e|---------------------------------------------------------------------------|
B|---10(x8)---10(x8)---10(x8)---9(x8)----9-----------------------------------|
G|---9(x8)----7(x8)----9(x8)----9(x8)----7-----------------------------------|
D|---7(x8)----7(x8)----7(x8)-------------7-----------------------------------|
A|------------------------------7(x8)----------------------------------------|
E|---------------------------------------------------------------------------|            
Submit corrections


        Breathe On Us  lessons Hard to play? Try these video lessons and learn fast Breathe On Us  lessons
        
↑ Back to top | Tablatures and chords for acoustic guitar and electric guitar, ukulele, drums are parodies/interpretations of the original songs. You may use it for private study, scholarship, research or language learning purposes only