» » »

Karen O - Sunset Sun Tabs

Artists:  A B C D E F G H I J K L M N O P Q R S T U V W X Y Z # 

Sunset Sun Tabs

(ver. 1) Click to play this song!
Karen O
 Rating:
3.9/5 (22 votes)

 Sunset Sun  lessons Tabs too difficult? Try these video lessons and learn fast
 
                    G         ?       D
e|-------3--------3-3---------2--|
B|-----0---0----1-----------3----|
G|------------------------2------|    
D|----------------------0--------|
A|------------0-------0----------|
E|--3----------------------------| 
    Sunset    Sunset  Sun
         Sun  rises   Sun   

    G         ?          D 
e|-------3---------3-3---------2-----2----|
B|-----0---0----1------------3-----3---3--|
G|-------------------------2-----2--------|
D|-----------------------0----------------|
A|------------0---------------------------|
E|--3-------------------------------------|
    Night has come it's  done
         Pain hides no   one     

    C          D       G
e|--------------------------------------------|
B|--------1-----------3---------0------0---0--|
G|-----0----0-------2---2-----0---0------0----|
D|--------------------------------------------|
A|--3------------0----------------------------|
E|------------------------3----------3--------|
    Lives they   wait be  side their fate  (but)
          You'll see  it  wasn't     me    (someday) 

     C            D         G
e|----------------------------------3-------|
B|---------1-----------3---------0-----0----|
G|------0-----0------2----2----0---------0--|
D|-------------------------------------=----|
A|---3------------0-------------------------|
E|--------------------------3---------------|
 But now   she's  met  some one
 Someday   you'll know the  one

            
Submit corrections


        Sunset Sun  lessons Hard to play? Try these video lessons and learn fast Sunset Sun  lessons
        
↑ Back to top | Tablatures and chords for acoustic guitar and electric guitar, ukulele, drums are parodies/interpretations of the original songs. You may use it for private study, scholarship, research or language learning purposes only