Home » K » Kapatid »

Kapatid - Prayer Tabs

Artists:  A B C D E F G H I J K L M N O P Q R S T U V W X Y Z # 

Prayer Tabs

(ver. 1) Click to play this song!
Kapatid
[Intro]
 
e|---------------------------------2-----------------------------------------|
B|------2---0--4------------2---0--4-----------------------------------------|
G|--------3----4--------------3----4-----------------------------------------|
D|-------------2-------------------2-----------------------------------------|
A|--2-2--------2--------2-2--------2-----------------------------------------|
E|---------------------------------------------------------------------------|
 
         Bsus2               Asus2
e|--x-x-x-x-x-x-x-x-----0-0-0-0-0-0-0-0--------------------------------------|
B|--2-2-2-2-2-2-2-2-----0-0-0-0-0-0-0-0--------------------------------------|
G|--4-4-4-4-4-4-4-4-----2-2-2-2-2-2-2-2--------------------------------------|
D|--4-4-4-4-4-4-4-4-----2-2-2-2-2-2-2-2--------------------------------------|
A|--2-2-2-2-2-2-2-2-----0-0-0-0-0-0-0-0--------------------------------------|
E|--2-2-2-2-2-2-2-2-----x-x-x-x-x-x-x-x--------------------------------------|
                                                                               x2
     Bsus2   Asus2           Asus2
e|--x-x-x-x-0-0-0-0-----0-0-0-0-0-0-0-0--------------------------------------|
B|--2-2-2-2-0-0-0-0-----0-0-0-0-0-0-0-0--------------------------------------|
G|--4-4-4-4-2-2-2-2-----2-2-2-2-2-2-2-2--------------------------------------|
D|--4-4-4-4-2-2-2-2-----2-2-2-2-2-2-2-2--------------------------------------|
A|--2-2-2-2-0-0-0-0-0h2-0-0-0-0-0-0-0-0--------------------------------------|
E|--2-2-2-2-x-x-x-x-----x-x-x-x-x-x-x-x--------------------------------------|
 
          C#m                  E
e|--4-4-4-4-4-4-4-4-----0-0-0-0-0-0-0-0--------------------------------------|
B|--5-5-5-5-5-5-5-5-----0-0-0-0-0-0-0-0--------------------------------------|
G|--6-6-6-6-6-6-6-6-----1-1-1-1-1-1-1-1--------------------------------------| x2
D|--6-6-6-6-6-6-6-6-----2-2-2-2-2-2-2-2--------------------------------------|
A|--4-4-4-4-4-4-4-4-----2-2-2-2-2-2-2-2--------------------------------------|
E|--x-x-x-x-x-x-x-x-----0-0-0-0-0-0-0-0--------------------------------------|
 
     Bsus2     C#m             E
e|--x-x-x-x--4-4-4-4----0-0-7-7-7-7-7-7--------------------------------------|
B|--2-2-2-2--5-5-5-5----9-9-9-9-9-9-9-9--------------------------------------|
G|--4-4-4-4--6-6-6-6----9-9-9-9-9-9-9-9--------------------------------------| x2
D|--4-4-4-4--6-6-6-6----9-9-9-9-9-9-9-9--------------------------------------|
A|--2-2-2-2--4-4-4-4----7-7-7-7-7-7-7-7--------------------------------------|
E|--2-2-2-2--x-x-x-x----0-0-0-0-0-0-0-0--------------------------------------|
 
     Bsus2     C#m           Asus2               Asus2
e|--x-x-x-x--4-4-4-4----0-0-0-0-0-0-0-0-----0-0-0-0-0-0-0-0------------------|
B|--2-2-2-2--5-5-5-5----0-0-0-0-0-0-0-0-----0-0-0-0-0-0-0-0------------------|
G|--4-4-4-4--6-6-6-6----2-2-2-2-2-2-2-2-----2-2-2-2-2-2-2-2------------------|
D|--4-4-4-4--6-6-6-6----2-2-2-2-2-2-2-2-----2-2-2-2-2-2-2-2------------------|
A|--2-2-2-2--4-4-4-4----0-0-0-0-0-0-0-0-0h2-0-0-0-0-0-0-0-0------------------|
E|--2-2-2-2--x-x-x-x----x-x-x-x-x-x-x-x-----x-x-x-x-x-x-x-x------------------|
 
 
[Verse 1]
 
"If I ever see you......face to face again I'll ask you..."
 
         Bsus2               Asus2
e|--x-x-x-x-x-x-x-x-----0-0-0-0-0-0-0-0--------------------------------------|
B|--2-2-2-2-2-2-2-2-----0-0-0-0-0-0-0-0--------------------------------------|
G|--4-4-4-4-4-4-4-4-----2-2-2-2-2-2-2-2--------------------------------------|
D|--4-4-4-4-4-4-4-4-----2-2-2-2-2-2-2-2--------------------------------------|
A|--2-2-2-2-2-2-2-2-----0-0-0-0-0-0-0-0--------------------------------------|
E|--2-2-2-2-2-2-2-2-----x-x-x-x-x-x-x-x--------------------------------------|
 
"why..."                "...so soon?"
 
     Bsus2   Asus2           Asus2
e|--x-x-x-x-0-0-0-0-----0-0-0-0-0-0-0-0--------------------------------------|
B|--2-2-2-2-0-0-0-0-----0-0-0-0-0-0-0-0--------------------------------------|
G|--4-4-4-4-2-2-2-2-----2-2-2-2-2-2-2-2--------------------------------------|
D|--4-4-4-4-2-2-2-2-----2-2-2-2-2-2-2-2--------------------------------------|
A|--2-2-2-2-0-0-0-0-0h2-0-0-0-0-0-0-0-0--------------------------------------|
E|--2-2-2-2-x-x-x-x-----x-x-x-x-x-x-x-x--------------------------------------|
 
"And in your grand debut from death, reborn again, for life I..."
 
         Bsus2               Asus2
e|--x-x-x-x-x-x-x-x-----0-0-0-0-0-0-0-0--------------------------------------|
B|--2-2-2-2-2-2-2-2-----0-0-0-0-0-0-0-0--------------------------------------|
G|--4-4-4-4-4-4-4-4-----2-2-2-2-2-2-2-2--------------------------------------|
D|--4-4-4-4-4-4-4-4-----2-2-2-2-2-2-2-2--------------------------------------|
A|--2-2-2-2-2-2-2-2-----0-0-0-0-0-0-0-0--------------------------------------|
E|--2-2-2-2-2-2-2-2-----x-x-x-x-x-x-x-x--------------------------------------|
 
"...pra-ay"             "I hate to see you..."
 
     Bsus2   Asus2           Asus2
e|--x-x-x-x-0-0-0-0-----0-0-0-0-0-0-0-0--------------------------------------|
B|--2-2-2-2-0-0-0-0-----0-0-0-0-0-0-0-0--------------------------------------|
G|--4-4-4-4-2-2-2-2-----2-2-2-2-2-2-2-2--------------------------------------|
D|--4-4-4-4-2-2-2-2-----2-2-2-2-2-2-2-2--------------------------------------|
A|--2-2-2-2-0-0-0-0-0h2-0-0-0-0-0-0-0-0--------------------------------------|
E|--2-2-2-2-x-x-x-x-----x-x-x-x-x-x-x-x--------------------------------------|
 
 
[Pre-chorus]
 
"...haunting or in your private hell. I hope you make it!"
 
          C#m                  E
e|--4-4-4-4-4-4-4-4-----0-0-0-0-0-0-0-0--------------------------------------|
B|--5-5-5-5-5-5-5-5-----0-0-0-0-0-0-0-0--------------------------------------|
G|--6-6-6-6-6-6-6-6-----1-1-1-1-1-1-1-1--------------------------------------|
D|--6-6-6-6-6-6-6-6-----2-2-2-2-2-2-2-2--------------------------------------|
A|--4-4-4-4-4-4-4-4-----2-2-2-2-2-2-2-2--------------------------------------|
E|--x-x-x-x-x-x-x-x-----0-0-0-0-0-0-0-0--------------------------------------|
 
 
[Chorus]
 
"This prayer's for you!"
 
     Bsus2     C#m             E
e|--x-x-x-x--4-4-4-4----0-0-7-7-7-7-7-7--------------------------------------|
B|--2-2-2-2--5-5-5-5----9-9-9-9-9-9-9-9--------------------------------------|
G|--4-4-4-4--6-6-6-6----9-9-9-9-9-9-9-9--------------------------------------| x2
D|--4-4-4-4--6-6-6-6----9-9-9-9-9-9-9-9--------------------------------------|
A|--2-2-2-2--4-4-4-4----7-7-7-7-7-7-7-7--------------------------------------|
E|--2-2-2-2--x-x-x-x----0-0-0-0-0-0-0-0--------------------------------------|
 
"This prayer's for you, yeah!"
 
     Bsus2     C#m           Asus2               Asus2
e|--x-x-x-x--4-4-4-4----0-0-0-0-0-0-0-0-----0-0-0-0-0-0-0-0------------------|
B|--2-2-2-2--5-5-5-5----0-0-0-0-0-0-0-0-----0-0-0-0-0-0-0-0------------------|
G|--4-4-4-4--6-6-6-6----2-2-2-2-2-2-2-2-----2-2-2-2-2-2-2-2------------------|
D|--4-4-4-4--6-6-6-6----2-2-2-2-2-2-2-2-----2-2-2-2-2-2-2-2------------------|
A|--2-2-2-2--4-4-4-4----0-0-0-0-0-0-0-0-0h2-0-0-0-0-0-0-0-0------------------|
E|--2-2-2-2--x-x-x-x----x-x-x-x-x-x-x-x-----x-x-x-x-x-x-x-x------------------|
 
     Bsus2   Asus2           Asus2
e|--x-x-x-x-0-0-0-0-----0-0-0-0-0-0-0-0--------------------------------------|
B|--2-2-2-2-0-0-0-0-----0-0-0-0-0-0-0-0--------------------------------------|
G|--4-4-4-4-2-2-2-2-----2-2-2-2-2-2-2-2--------------------------------------|
D|--4-4-4-4-2-2-2-2-----2-2-2-2-2-2-2-2--------------------------------------|
A|--2-2-2-2-0-0-0-0-0h2-0-0-0-0-0-0-0-0--------------------------------------|
E|--2-2-2-2-x-x-x-x-----x-x-x-x-x-x-x-x--------------------------------------|
 
     Bsus2   Asus2
e|--x-x-x-x----0-------------------------------------------------------------|
B|--2-2-2-2----0-------------------------------------------------------------|
G|--4-4-4-4----2-------------------------------------------------------------|
D|--4-4-4-4----2-------------------------------------------------------------|
A|--2-2-2-2----0-------------------------------------------------------------|
E|--2-2-2-2----x-------------------------------------------------------------|
 
 
[Verse 2]
 
"Oh, wax and wicker that burned throughout the night. The light you shine..."
 
         Bsus2               Asus2
e|--x-x-x-x-x-x-x-x-----0-0-0-0-0-0-0-0--------------------------------------|
B|--2-2-2-2-2-2-2-2-----0-0-0-0-0-0-0-0--------------------------------------|
G|--4-4-4-4-4-4-4-4-----2-2-2-2-2-2-2-2--------------------------------------|
D|--4-4-4-4-4-4-4-4-----2-2-2-2-2-2-2-2--------------------------------------|
A|--2-2-2-2-2-2-2-2-----0-0-0-0-0-0-0-0--------------------------------------|
E|--2-2-2-2-2-2-2-2-----x-x-x-x-x-x-x-x--------------------------------------|
 
"...made me smile"
 
     Bsus2   Asus2           Asus2
e|--x-x-x-x-0-0-0-0-----0-0-0-0-0-0-0-0--------------------------------------|
B|--2-2-2-2-0-0-0-0-----0-0-0-0-0-0-0-0--------------------------------------|
G|--4-4-4-4-2-2-2-2-----2-2-2-2-2-2-2-2--------------------------------------|
D|--4-4-4-4-2-2-2-2-----2-2-2-2-2-2-2-2--------------------------------------|
A|--2-2-2-2-0-0-0-0-0h2-0-0-0-0-0-0-0-0--------------------------------------|
E|--2-2-2-2-x-x-x-x-----x-x-x-x-x-x-x-x--------------------------------------|
 
"You are the candle that..."   "turns the darkness back. Extinguished..."
 
         Bsus2                      Asus2
e|--x-x-x-x-x-x-x-x------------0-0-0-0-0-0-0-0-------------------------------|
B|--2-2-2-2-2-2-2-2------------0-0-0-0-0-0-0-0-------------------------------|
G|--4-4-4-4-4-4-4-4------------2-2-2-2-2-2-2-2-------------------------------|
D|--4-4-4-4-4-4-4-4------------2-2-2-2-2-2-2-2-------------------------------|
A|--2-2-2-2-2-2-2-2------------0-0-0-0-0-0-0-0-------------------------------|
E|--2-2-2-2-2-2-2-2------------x-x-x-x-x-x-x-x-------------------------------|
 
"...fi-ire!"            "I hate to see you..."
 
     Bsus2   Asus2           Asus2
e|--x-x-x-x-0-0-0-0-----0-0-0-0-0-0-0-0--------------------------------------|
B|--2-2-2-2-0-0-0-0-----0-0-0-0-0-0-0-0--------------------------------------|
G|--4-4-4-4-2-2-2-2-----2-2-2-2-2-2-2-2--------------------------------------|
D|--4-4-4-4-2-2-2-2-----2-2-2-2-2-2-2-2--------------------------------------|
A|--2-2-2-2-0-0-0-0-0h2-0-0-0-0-0-0-0-0--------------------------------------|
E|--2-2-2-2-x-x-x-x-----x-x-x-x-x-x-x-x--------------------------------------|
 
[Pre-chorus]
 
"haunting or in your private...hell, I hope you make it!"
 
          C#m                         E
e|--4-4-4-4-4-4-4-4------------0-0-0-0-0-0-0-0-------------------------------|
B|--5-5-5-5-5-5-5-5------------0-0-0-0-0-0-0-0-------------------------------|
G|--6-6-6-6-6-6-6-6------------1-1-1-1-1-1-1-1-------------------------------|
D|--6-6-6-6-6-6-6-6------------2-2-2-2-2-2-2-2-------------------------------|
A|--4-4-4-4-4-4-4-4------------2-2-2-2-2-2-2-2-------------------------------|
E|--x-x-x-x-x-x-x-x------------0-0-0-0-0-0-0-0-------------------------------|
 
 
[Chorus]
 
"This prayer's for you!"
 
     Bsus2     C#m             E
e|--x-x-x-x--4-4-4-4----0-0-7-7-7-7-7-7--------------------------------------|
B|--2-2-2-2--5-5-5-5----9-9-9-9-9-9-9-9--------------------------------------|
G|--4-4-4-4--6-6-6-6----9-9-9-9-9-9-9-9--------------------------------------| x2
D|--4-4-4-4--6-6-6-6----9-9-9-9-9-9-9-9--------------------------------------|
A|--2-2-2-2--4-4-4-4----7-7-7-7-7-7-7-7--------------------------------------|
E|--2-2-2-2--x-x-x-x----0-0-0-0-0-0-0-0--------------------------------------|
 
"This prayer's for you, yeah!"
 
     Bsus2     C#m           Asus2               Asus2
e|--x-x-x-x--4-4-4-4----0-0-0-0-0-0-0-0-----0-0-0-0-0-0-0-0------------------|
B|--2-2-2-2--5-5-5-5----0-0-0-0-0-0-0-0-----0-0-0-0-0-0-0-0------------------|
G|--4-4-4-4--6-6-6-6----2-2-2-2-2-2-2-2-----2-2-2-2-2-2-2-2------------------|
D|--4-4-4-4--6-6-6-6----2-2-2-2-2-2-2-2-----2-2-2-2-2-2-2-2------------------|
A|--2-2-2-2--4-4-4-4----0-0-0-0-0-0-0-0-0h2-0-0-0-0-0-0-0-0------------------|
E|--2-2-2-2--x-x-x-x----x-x-x-x-x-x-x-x-----x-x-x-x-x-x-x-x------------------|
 
         Bsus2               Asus2
e|--x-x-x-x-x-x-x-x-----0-0-0-0-0-0-0-0--------------------------------------|
B|--2-2-2-2-2-2-2-2-----0-0-0-0-0-0-0-0--------------------------------------|
G|--4-4-4-4-4-4-4-4-----2-2-2-2-2-2-2-2--------------------------------------|
D|--4-4-4-4-4-4-4-4-----2-2-2-2-2-2-2-2--------------------------------------|
A|--2-2-2-2-2-2-2-2-----0-0-0-0-0-0-0-0--------------------------------------|
E|--2-2-2-2-2-2-2-2-----x-x-x-x-x-x-x-x--------------------------------------|
                                                                               x2
     Bsus2   Asus2           Asus2
e|--x-x-x-x-0-0-0-0-----0-0-0-0-0-0-0-0--------------------------------------|
B|--2-2-2-2-0-0-0-0-----0-0-0-0-0-0-0-0--------------------------------------|
G|--4-4-4-4-2-2-2-2-----2-2-2-2-2-2-2-2--------------------------------------|
D|--4-4-4-4-2-2-2-2-----2-2-2-2-2-2-2-2--------------------------------------|
A|--2-2-2-2-0-0-0-0-0h2-0-0-0-0-0-0-0-0--------------------------------------|
E|--2-2-2-2-x-x-x-x-----x-x-x-x-x-x-x-x--------------------------------------|
 
 
[Solo]
 
GUITAR 1
 
          C#m                         E
e|--4-4-4-4-4-4-4-4------------0-0-0-0-0-0-0-0-------------------------------|
B|--5-5-5-5-5-5-5-5------------0-0-0-0-0-0-0-0-------------------------------|
G|--6-6-6-6-6-6-6-6------------9-9-9-9-9-9-9-9-------------------------------| x2
D|--6-6-6-6-6-6-6-6------------9-9-9-9-9-9-9-9-------------------------------|
A|--4-4-4-4-4-4-4-4------------7-7-7-7-7-7-7-7-------------------------------|
E|--x-x-x-x-x-x-x-x------------0-0-0-0-0-0-0-0-------------------------------|
 
GUITAR 2
 
e|--19-19-16-14--------19-19-16-14-16----------------------------------------|
B|--------------16-----------------------------------------------------------|
G|-----------------16--------------------------------------------------------|
D|---------------------------------------------------------------------------|
A|---------------------------------------------------------------------------|
E|---------------------------------------------------------------------------|
 
 
[Chorus]
 
"This prayer's for you!"
 
     Bsus2     C#m             E
e|--x-x-x-x--4-4-4-4----0-0-7-7-7-7-7-7--------------------------------------|
B|--2-2-2-2--5-5-5-5----9-9-9-9-9-9-9-9--------------------------------------|
G|--4-4-4-4--6-6-6-6----9-9-9-9-9-9-9-9--------------------------------------| x2
D|--4-4-4-4--6-6-6-6----9-9-9-9-9-9-9-9--------------------------------------|
A|--2-2-2-2--4-4-4-4----7-7-7-7-7-7-7-7--------------------------------------|
E|--2-2-2-2--x-x-x-x----0-0-0-0-0-0-0-0--------------------------------------|
 
"This prayer's for you, yeah!"
 
     Bsus2     C#m           Asus2               Asus2
e|--x-x-x-x--4-4-4-4----0-0-0-0-0-0-0-0-----0-0-0-0-0-0-0-0------------------|
B|--2-2-2-2--5-5-5-5----0-0-0-0-0-0-0-0-----0-0-0-0-0-0-0-0------------------|
G|--4-4-4-4--6-6-6-6----2-2-2-2-2-2-2-2-----2-2-2-2-2-2-2-2------------------|
D|--4-4-4-4--6-6-6-6----2-2-2-2-2-2-2-2-----2-2-2-2-2-2-2-2------------------|
A|--2-2-2-2--4-4-4-4----0-0-0-0-0-0-0-0-0h2-0-0-0-0-0-0-0-0------------------|
E|--2-2-2-2--x-x-x-x----x-x-x-x-x-x-x-x-----x-x-x-x-x-x-x-x------------------|
 
 
[Outro]
 
"This prayer's for you!" / "All my life, he's waiting"/ "All my life, he's waiting"
 
     Bsus2     C#m             E
e|--x-x-x-x--4-4-4-4----0-0-7-7-7-7-7-7--------------------------------------|
B|--2-2-2-2--5-5-5-5----9-9-9-9-9-9-9-9--------------------------------------|
G|--4-4-4-4--6-6-6-6----9-9-9-9-9-9-9-9--------------------------------------| x3
D|--4-4-4-4--6-6-6-6----9-9-9-9-9-9-9-9--------------------------------------|
A|--2-2-2-2--4-4-4-4----7-7-7-7-7-7-7-7--------------------------------------|
E|--2-2-2-2--x-x-x-x----0-0-0-0-0-0-0-0--------------------------------------|
 
"This prayer's for you, yeah!"
 
     Bsus2     C#m           Asus2               Asus2
e|--x-x-x-x--4-4-4-4----0-0-0-0-0-0-0-0-----0-0-0-0-0-0-0-0------------------|
B|--2-2-2-2--5-5-5-5----0-0-0-0-0-0-0-0-----0-0-0-0-0-0-0-0------------------|
G|--4-4-4-4--6-6-6-6----2-2-2-2-2-2-2-2-----2-2-2-2-2-2-2-2------------------|
D|--4-4-4-4--6-6-6-6----2-2-2-2-2-2-2-2-----2-2-2-2-2-2-2-2------------------|
A|--2-2-2-2--4-4-4-4----0-0-0-0-0-0-0-0-0h2-0-0-0-0-0-0-0-0------------------|
E|--2-2-2-2--x-x-x-x----x-x-x-x-x-x-x-x-----x-x-x-x-x-x-x-x------------------|
 
     Bsus2   Asus2
e|--x-x-x-x----0-------------------------------------------------------------|
B|--2-2-2-2----0-------------------------------------------------------------|
G|--4-4-4-4----2-------------------------------------------------------------|
D|--4-4-4-4----2-------------------------------------------------------------|
A|--2-2-2-2----0-------------------------------------------------------------|
E|--2-2-2-2----x-------------------------------------------------------------|
            
Submit corrections

↑ Back to top | Tablatures and chords for acoustic guitar and electric guitar, ukulele, drums are parodies/interpretations of the original songs. You may use it for private study, scholarship, research or language learning purposes only