» » »

Kanye West - Closed On Sunday Chords

Artists:  A B C D E F G H I J K L M N O P Q R S T U V W X Y Z # 

Closed On Sunday Chords

(ver. 1) Click to play this song!
Kanye West
 Rating:
4/5 (32 votes)

 Closed On Sunday lessons Tabs too difficult? Try these video lessons and learn fast
 
                [Intro]

Am Dm7 Esus4

Am/E Dm7 Esus4


[Chorus]

Am
Closed on Sunday, you're my Chick-fil-A

Dm7
Closed on Sunday, you my Chick-fil-A

Esus4
Hold the selfies, put the 'Gram away

Am/E
Get your family, all y'all hold hands and pray

Dm7
When you got daughters, always keep 'em safe

Esus4
Watch out for vipers, don't let them indoctrinate

Am
Closed on Sunday, you my Chick-fil-A

Dm7
You're my number one, with the lemonade

Esus4
Raise our sons, train them in the faith

Am/E
Through temptations, make sure they're wide awake

Dm7
Follow Jesus, listen and obey

Esus4                        N.C.
No more livin' for the culture, we nobody's slave


[Verse]

Am
Stand up for my home


Even if I take this walk alone

F
I bow down to the King upon the throne


My life is His, I'm no longer my own

Am
I pray to God that He'll strengthen my hand


They will think twice steppin' onto my land

F
I draw the line, it's written in the sand


Try me and you will see that I ain't playin'


Am
Now, back up off my family, move your hands


I got my weapons in the spirit's land


F                             Am
I, Jezebel don't even stand a chance


Jezebel don't even stand a chance


N.C.
Chick-fil-A!


[Intro Tab]
--Note--
| p   Pull-off

   Am
e|----------------------0----------------------------0------------|
B|-----------1-1p0---0--------------------1-1p0---0---------------|
G|--------2--------2-------------------2--------2-----------------|
D|-----2---------------------------2------------------------------|
A|--0---------------------------0---------------------------------|
E|----------------------------------------------------------------|

   Dm7
e|----------1-------0--------------------1---------0--------------|
B|--------1---1p0---------------------1------1p0------------------|
G|-----2----------2----------------2-------------2----------------|
D|--0---------------------------0---------------------------------|
A|----------------------------------------------------------------|
E|----------------------------------------------------------------|

   Esus4
e|----------------------------------------------------------------|
B|----------0-----------------------------0-----------------------|
G|--------2---2----1-------------------2-----2----1---------------|
D|-----2---------2-------------------2----------2-----------------|
A|----------------------------------------------------------------|
E|--0---------------------------0---------------------------------|

   Am/E
e|----------------------------------------------------------------|
B|-----------1-1p0---0--------------------1-1p0---0---------------|
G|--------2--------2-------------------2--------2-----------------|
D|-----2---------------------------2------------------------------|
A|----------------------------------------------------------------|
E|--0--------------------------0----------------------------------|

   Dm7
e|----------1--------0--------------------1---------0-------------|
B|--------1---1p0---------------------1------1p0------------------|
G|-----2-----------2----------------2-------------2---------------|
D|--0---------------------------0---------------------------------|
A|----------------------------------------------------------------|
E|----------------------------------------------------------------|

   Esus4
e|----------------------------------------------------------------|
B|----------0-------0----------------------0--------0-------------|
G|--------2---2-------------------------2-----2-------------------|
D|-----2---------2-------------------2-----------2----------------|
A|----------------------------------------------------------------|
E|--0---------------------------0---------------------------------|

            
Submit corrections


        Closed On Sunday lessons Hard to play? Try these video lessons and learn fast Closed On Sunday lessons
        
↑ Back to top | Tablatures and chords for acoustic guitar and electric guitar, ukulele, drums are parodies/interpretations of the original songs. You may use it for private study, scholarship, research or language learning purposes only