» » »

Kamikazee - Sobrang Init Bass

Artists:  A B C D E F G H I J K L M N O P Q R S T U V W X Y Z # 

Sobrang Init Bass

(ver. 2) Click to play this song!
Kamikazee
 Rating:
4/5 (4 votes)


 Sobrang Init lessons Tabs too difficult? Try these video lessons and learn fast
 
                Band: Kamikazee


Intro:
G|-------(8x)-|----------------|
D|------------|----------------|
A|-2\1--------|-2\1-0-4\2--0-4-|
E|-----666666-|----------------|
       ......


Verse I:
G|-------(8x)-|----------------|
D|------------|----------------|
A|-2\1--------|-2\1-0-4\2--0-4-|
E|-----666666-|----------------|
       ......


Chorus:
G|-----------------(8x)-|
D|----------------------|
A|----------------------|
E|-2-5-4--2--7--5--4--8-|

Post-Chorus:
G|------------|-------(8x)-|----------------|
D|------------|------------|----------------|
A|------------|-2\1--------|-2\1-0-4\2--0-4-|
E|-2222222222-|-----666666-|----------------|
   ..........       ......


Verse II:
G|-------(8x)-|----------------|
D|------------|----------------|
A|-2\1--------|-2\1-0-4\2--0-4-|
E|-----666666-|----------------|
       ......


Chorus:
G|-----------------(8x)-|
D|----------------------|
A|----------------------|
E|-2-5-4--2--7--5--4--8-|


Bridge I:
G|-----------------------|
D|-----------------------|
A|-------------2-1---2-1-|
D|-2---2--2--2-----2-----|


Bridge II:
G|----------------|
D|----------------|
A|------1-------1-|
E|-222-----222----|
   ...     ...


Bridge III:
G|------------------|
D|------------------|
A|------------------|
E|-2222222222222222-|

G|-----------------(8x)-|
D|----------------------|
A|----------------------|
E|-2-5-4--2--7--5--4--8-|

G|--------------|
D|--------------|
A|--------------|
E|-222222222222-|
   ............

G|---------------------------------------------------|
D|---------------------------------------------------|
A|---------------------------------------------------|
E|-2--22---2-2---22---2-2-2-2-2-2-2-2----22222222-22-|
   .  ..   . .   ..   . . . . . . . .    ........ ..

G|---------------|
D|---------------|
A|-2\1-----------|
E|------22222222-|


Outro:
G|-----(3x)-|----------------|
D|----------|----------------|
A|-2\1------|-2\1------------|
E|-----22-2-|------22-2-22-2-|
       .. .        .. . .. .
            
Submit corrections



        Sobrang Init lessons Hard to play? Try these video lessons and learn fast Sobrang Init lessons
        
↑ Back to top | Tablatures and chords for acoustic guitar and electric guitar, ukulele, drums are parodies/interpretations of the original songs. You may use it for private study, scholarship, research or language learning purposes only