» » »

Kamelot - Forever Tabs

Artists:  A B C D E F G H I J K L M N O P Q R S T U V W X Y Z # 

Forever Tabs

(ver. 3) Click to play this song!
Kamelot
 Rating:
4/5 (4 votes)
                e|----------16--------------------------------------------------------------|
B|----19-18----19-18--------18-21-19-18-------------------------------------|
G|15~----------------18-15~-------------20-18-16-15~-20~-19p20h19p20--------|
D|--------------------------------------------------------------------------|
A|--------------------------------------------------------------------------|
E|--------------------------------------------------------------------------|

e|--------------------------------------------------------------------------|
B|-----------[16]-----------------------------------------------------------|
G|-18p16p15--------13-16----------------------------------------------------|
D|------------------------15p13p12-16~--------------------------------------|
A|--------------------------------------------------------------------------|
E|--------------------------------------------------------------------------|

e|--------------------------------------------------------------------------|
B|-------------------------11~-12~------------------------------------------|
G|----------------10-11-13---------13~-11-10--------------------------------|
D|-------11-12-13-----------------------------11\---------------------------|
A|-14-15--------------------------------------------------------------------|
E|--------------------------------------------------------------------------|
PM_______________

Tablature Legend
----------------
 h   - hammer-on
 p   - pull-off
 b   - bend
 pb  - pre-bend
 r   - bend release (if no number after the r, then release immediately)
 /\  - slide into or out of (from/to "nowhere")
 s   - legato slide
 S   - shift slide
 - natural harmonic
[n]  - artificial harmonic
n(n) - tapped harmonic
 ~   - vibrato
 tr  - trill
 T   - tap
 TP  - trem. picking
 PM  - palm muting
\n/  - tremolo bar dip; n = amount to dip
 \n  - tremolo bar down
 n/  - tremolo bar up
/n\  - tremolo bar inverted dip
 =   - hold bend; also acts as connecting device for hammers/pulls
 <> - volume swell (louder/softer)
 x   - on rhythm slash represents muted slash
 o   - on rhythm slash represents single note slash
            
Submit corrections

↑ Back to top | Tablatures and chords for acoustic guitar and electric guitar, ukulele, drums are parodies/interpretations of the original songs. You may use it for private study, scholarship, research or language learning purposes only