» » »

Kamelot - Center Of The Universe Bass

Artists:  A B C D E F G H I J K L M N O P Q R S T U V W X Y Z # 

Center Of The Universe Bass

(ver. 1) Click to play this song!
Kamelot
 Rating:
4.2/5 (5 votes)

 Center Of The Universe lessons Tabs too difficult? Try these video lessons and learn fast
 
                Kamelot - Center of The Universe

Riff 1 2X
Gb|----------------------|
Db|----------------------|
Ab|-7----3----7----3-2---|
Eb|--------------------3-|

Riff 2 1X
Gb|-------------------------------|---------------------------------|
Db|-------------------------------|---------------------------------|
Ab|-5-5-5-5-5-5-5-5-5-5-5-5-5-5-5-|-3-3-3-3-3-3-3-3-3-3-3-3-3-3-3-3-|
Eb|-------------------------------|---------------------------------|

Gb|-------------------------------|---------------------------------|
Db|-------------------------------|---------------------------------|
Ab|-7-7-7-7-7-7-7-7-7-7-7-7-7-7-7-|-7-7-7-7-7-7-7-7-7-7-7-7-7-7-7-7-|
Eb|-------------------------------|---------------------------------|

Gb|-----------------|
Db|-----------------|
Ab|-5-5-5-5-5-5-5-5-|
Eb|-----------------|

Riff 3 
Gb|----------------------------------------------|
Db|----------------------------------------------|
Ab|-7-7-7-7-7-7-3-3-3-3-3-3-7-7-7-7-7-7--3--2----|
Eb|--------------------------------------------3-|

Riff 4 1X
Gb|-----------------------------------------|
Db|-----------------------------------------|
Ab|-----------------------------------------|
Eb|-0----0----0----0----0----0----0----0----|

Riff 5 1X
Gb|-----------------------|
Db|-----------------------|
Ab|-3--3-3--3-3--3-3--5-5-|
Eb|-----------------------|

Riff 6 2X
Gb|---------------------------------|
Db|---------------------------------|
Ab|---------------------------------|
Eb|-0-0-0-0-0-0-0-0-0-0-0-0-0-0-0-0-|

Riff 5 1X
Riff 6 2X

Riff 7 1X
Gb|-------7-5---------5-4---5-7~------|
Db|---5-9-----5---5-9-----5-----------|
Ab|-7-----------7---------------------|
Eb|-----------------------------------|

Riff 6 2X
Riff 7 1X


Riff 8 1X
Gb|-----------------------------------|
Db|-----------------------------------|
Ab|-7--3--5-----2-----7-----3-----5---|
Eb|-----------------------------------|

Riff 9 1X
Gb|------------------------------------------|-----------------|
Db|------------------------------------------|-----------------|
Ab|-7---3---5---2-----------3--3-3--3-3--3-3-|-7---3---5---2---|
Eb|-----------------3---2--------------------|-----------------|

Gb|-----------------------------------------------|
Db|-----------------------------------------------|
Ab|-----------------------------------------------|
Eb|-3-3333-3--0-0000-0--2-2222-2--3-3-3-3-5-5-5-5-|

Gb|-----------------------------------|
Db|-----------------------------------|
Ab|-----------------------------------|
Eb|-0000--0000--0000--0000--0000--12\-|

Riff 6 
Riff 7 
Riff 6 
Riff 7 
Riff 8 
Riff 9 

Something nothing

Riff 10
Gb|--------------------------------|
Db|--------------------------------|
Ab|--------------------------------|
Eb|-0----0----0----0----0-0---0----|

Solo
Gb|-----------------------------------------------------------------|
Db|-----------------------------------------------------------------|
Ab|-8-8-8-8-8-8-8-8-------------------------------------------------|
Eb|-----------------4-4-4-4-4-4-4-4-2-2-2-2-2-2-2-2-0-0-0-0-0-0-0-0-|

Gb|-----------------------------------------------------------------|
Db|-----------------------------------------------------------------|
Ab|-9-9-9-9-9-9-9-9-------------------------------------------------|
Eb|-----------------5-5-5-5-5-5-5-5-3-3-3-3-3-3-3-3-1-1-1-1-1-1-1-1-|

Riff 10
Riff 8
Riff 9

Be some creative on some parts, but just for you to hold on
            
Submit corrections


        Center Of The Universe lessons Hard to play? Try these video lessons and learn fast Center Of The Universe lessons
        
↑ Back to top | Tablatures and chords for acoustic guitar and electric guitar, ukulele, drums are parodies/interpretations of the original songs. You may use it for private study, scholarship, research or language learning purposes only