» » »

Justin Timberlake - Suit And Tie Bass

Artists:  A B C D E F G H I J K L M N O P Q R S T U V W X Y Z # 

Suit And Tie Bass

(ver. 1) Click to play this song!
Justin Timberlake
 Rating:
4.4/5 (14 votes)


 Suit And Tie lessons Tabs too difficult? Try these video lessons and learn fast
 
                [Slow Intro]

G|------------------------|------------------------|
D|------------------------|------------------------|
A|------------------------|------------------------|  play 2x
E|-0--0----------------0--|---------------------2--|
B|------------------------|-0-----0-----0----------|

G|------------------------|-------------------------|------------------------|------------------------|
D|------------------------|-------------------------|------------------------|------------------------|
A|------------------------|-------------------------|------------------------|------------------------|
E|------------------------|-------------------------|------------------------|------------------------|
B|-3--3----------------3--|-5--5--3--0--3-----0-----|-3--3----------------3--|-5--5--3--0--3-----3----|

G|------------------------|------------------------|
D|------------------------|------------------------|
A|------------------------|------------------------|  play 2x
E|-0--0----------------0--|---------------------2--|
B|------------------------|-0-----0-----0----------|

G|------------------------|-------------------------|------------------------|---------------|
D|------------------------|-------------------------|------------------------|---------------|
A|------------------------|-------------------------|------------------------|---------------|
E|------------------------|-------------------------|------------------------|---------------|
B|-3--3----------------3--|-5--5--3--0--3-----0-----|-3--3-----3-----3----3--|-3-------------|




[Uptempo Verse]
   Note with * below is occasionally played open (0)

G|------------------------------|
D|------------------------------|
A|-7--7-------7-----9---------9-| play 6x
E|--------------7-7---7*-7------| 
B|------------------------------|

G|------------------------------|
D|------------------------------|
A|-5--5-------5-----7---5-------| play 2x
E|--------------5-5---0-----7p5-|
B|------------------------------|


repeat verse but last bar changes to:

G|------------------------------|
D|------------------------------|
A|-5-5---5--5--5-5--------------| same rhythm as end of intro, 2x as fast
E|------------------------------|
B|------------------------------|




[Chorus]

G|-----------------------------|
D|-----------------------------|
A|-7--7-------7-----9--------9-| play 2x
E|--------------7-7---7-7------|
B|-----------------------------|

G|------------------------------|
D|------------------------------|
A|-5--5-------5-----7---5-------| play 2x
E|--------------5-5---0-----7p5-|
B|------------------------------|


play above chorus 4x, but ending changes like the above Verse part:

G|------------------------------|
D|------------------------------|
A|-5-5---5--5--5-5--------------|
E|------------------------------|
B|------------------------------|




Play Verse and Chorus Again



[Jay-Z Bridge]

  play slow like the intro, repeat as needed

G|------------------------|------------------------|
D|------------------------|------------------------|
A|------------------------|------------------------|  play 2x
E|-0--0----------------0--|---------------------2--|
B|------------------------|-0-----0-----0----------|

G|------------------------|-------------------------|------------------------|------------------------|
D|------------------------|-------------------------|------------------------|------------------------|
A|------------------------|-------------------------|------------------------|------------------------|
E|------------------------|-------------------------|------------------------|------------------------|
B|-3--3----------------3--|-5--5--3--0--3-----0-----|-3--3----------------3--|-5--5--3--0--3-----3----|



[Outro]

  (4:49)
G|------------------------------|
D|------------------------------|
A|-7--7-------7-----9---------9-| play 6x
E|--------------7-7---7--7------| 
B|------------------------------|

G|------------------------------|------------------------------|
D|------------------------------|------------------------------|
A|-5--5-------5-----7---5-------|-5--5-------------------------|
E|--------------5-5---0-----7p5-|------------------------------|
B|------------------------------|------------------------------|

G|------------------------------|
D|------------------------------|
A|-7--7-------7-----9---------9-| play 6x
E|--------------7-7---7--7------| 
B|------------------------------|

G|------------------------------|------------------------------|
D|------------------------------|------------------------------|
A|-5--5-------5-----7---5-------|-5-5---5--5--5-5--------------|
E|--------------5-5---0-----7p5-|------------------------------|
B|------------------------------|------------------------------|
            
Submit corrections



        Suit And Tie lessons Hard to play? Try these video lessons and learn fast Suit And Tie lessons
        
↑ Back to top | Tablatures and chords for acoustic guitar and electric guitar, ukulele, drums are parodies/interpretations of the original songs. You may use it for private study, scholarship, research or language learning purposes only