Home » J » Justice »

Justice - Civilization Bass

Artists:  A B C D E F G H I J K L M N O P Q R S T U V W X Y Z # 

Civilization Bass

(ver. 1) Click to play this song!
Justice
 Rating:
4/5 (4 votes)
                
Normal Tuning
G|
D|
A|
E|

Intro
|----------------------|
|----------------------|
|----------------------|
|--5~---5~---5~---5~---|
                                  x3
|-----------------------------------|---------------------------|
|-----------------------------------|---------------------------|
|-------------------3--3-2-0--------|-------------------3----5--|
|-5----5--5----5-------------3-0-3--|-5----5--5----5------------|

|-----|-----|--------|-----|--------|-----|---------------------|
|-----|-----|--------|-----|--------|-----|---------------------|
|-----|-----|--------|-----|--------|-----|--------2--3--5------|
|--5~-|--5~-|--3--5~-|--5~-|--3--5~-|--5~-|--3--5-----------0~--|

Chorus
|-----|
|-----|
|-----|
|--0--|

|-------------------------------------------|
|-------------------------------------------|
|--3--3----0--3--5--5---5--3----------------| x3
|-----------------------------5---5---5---5-|

|-----------------------------------|
|-----------------------------------|
|--3--2~---2--3--2------------------| Repeat both riffs
|-------------------5---5---5---5---|

end riff
|-------------------|
|-------------------|
|--3--5----3--5--0--|
|-------------------|

Verse
|-----|-----------|-----|-----------|----------|-----------------------|
|-----|-----------|-----|-----------|----------|-----------------------|
|-----|--3--5-----|-----|--3--5-----|-------5~-|--3--5-----2--3--5-----|
|--5~-|--------5~-|--5~-|--------5~-|--5--5----|--------5-----------0--|

2nd Chorus
|-----|
|-----|
|-----|
|--0--|

|-------------------------------------------|
|-------------------------------------------|
|--3--3----0--3--5--5---5--3----------------| x3
|-----------------------------5---5---5---5-|

|-----------------------------------|
|-----------------------------------|
|--3--2~---2--3--2------------------| Repeat both riffs
|-------------------5---5---5---5---|

2nd end riff
|---------------------------------------------------|
|---------------------------------------------------|
|--3--5~----3--5--3--5~----3--5--3--5~----3--5--0~--|
|---------------------------------------------------|

Bridge                            x3
|-----------------------------------|---------------------------|
|-----------------------------------|---------------------------|
|-------------------3--3-2-0--------|---------------------------|
|-5----5--5----5-------------3-0-3--|-5----5--5----5----0----3--|

|-------------|
|-------------|
|-------------|
|-0--3--5~----|

Chorus
|-----|
|-----|
|-----|
|--0--|

|-------------------------------------------|
|-------------------------------------------|
|--3--3----0--3--5--5---5--3----------------| repeat
|-----------------------------5---5---5---5-|

|-----------------------------------|
|-----------------------------------|
|--3--2~---2--3--2------------------| Repeat both riffs
|-------------------5---5---5---5---|

end riff
|-------------------|
|-------------------|
|--3--5----3--5--0--|
|-------------------|
            
Submit corrections

↑ Back to top | Tablatures and chords for acoustic guitar and electric guitar, ukulele, drums are parodies/interpretations of the original songs. You may use it for private study, scholarship, research or language learning purposes only