» » »

Julian Casablancas - Take Me In Your Army Tabs

Artists:  A B C D E F G H I J K L M N O P Q R S T U V W X Y Z # 

Take Me In Your Army Tabs

(ver. 1) Click to play this song!
Julian Casablancas
 Rating:
4/5 (4 votes)

 Take Me In Your Army  lessons Tabs too difficult? Try these video lessons and learn fast
 
                                [Verse]
e|---------------------------------|
B|---------------------------------|
G|--9--10----9--10----7--9----7--9-|
D|---------------------------------|
A|---------------------------------|
E|---------------------------------|

Somewhere to be, something to do
But you don?t want it anymore

e|---------------------------------------|
B|---------------------------------------|
G|--11--13----11--13----10--11----10--11-|
D|---------------------------------------|
A|---------------------------------------|
E|---------------------------------------|

I was not ready for the podium yet
Just the stage

                [Bridge]
e|---------------------------------|
B|---------------------------------|
G|--9--10----9--10----7--9----7--9-|
D|---------------------------------|
A|---------------------------------|
E|---------------------------------|

In all my dreams, I?m waiting for you
And nothing has ever changed, except I can?t touch you

e|---------------------------------------|
B|---------------------------------------|
G|--11--13----11--13----10--11----10--11-|
D|---------------------------------------|
A|---------------------------------------|
E|---------------------------------------|

The best part is when I feel you
You?re just watching me
Me

                 [Chorus]
e|--5------4----------------------------------|
B|--6-6x---5-6x-------------------------------|
G|--7------6----------------------------------
D|--------------------------------------------|
A|--------------------------------------------|
E|--------------------------------------------|

Take me in your army
Take me in your army
Take me in your army        (Listen for the beat)
Take me in your army


                [Verse]
e|---------------------------------|
B|---------------------------------|
G|--9--10----9--10----7--9----7--9-|
D|---------------------------------|
A|---------------------------------|
E|---------------------------------|

This isn't for everybody
This is for nobody


e|---------------------------------------|
B|---------------------------------------|
G|--11--13----11--13----10--11----10--11-|
D|---------------------------------------|
A|---------------------------------------|
E|---------------------------------------|

e|---------------------------------|
B|---------------------------------|
G|--9--10----9--10----7--9----7--9-|
D|---------------------------------|
A|---------------------------------|
E|---------------------------------|

It took a thousand years to build
It took me a day to destroy

The customer is obviously
Oblivious and wrong

                 [Chorus]
e|--5------4----------------------------------|
B|--6-6x---5-6x-------------------------------|
G|--7------6----------------------------------
D|--------------------------------------------|
A|--------------------------------------------|
E|--------------------------------------------|

Take me in your army
Take me in your army
Take me in your army        (Listen for the beat)
Take me in your army
            
Submit corrections


        Take Me In Your Army  lessons Hard to play? Try these video lessons and learn fast Take Me In Your Army  lessons
        
↑ Back to top | Tablatures and chords for acoustic guitar and electric guitar, ukulele, drums are parodies/interpretations of the original songs. You may use it for private study, scholarship, research or language learning purposes only