» » »

Julian Casablancas - Nintendo Blood Tabs

Artists:  A B C D E F G H I J K L M N O P Q R S T U V W X Y Z # 

Nintendo Blood Tabs

(ver. 1) Click to play this song!
Julian Casablancas
 Rating:
4/5 (4 votes)

 Nintendo Blood  lessons Tabs too difficult? Try these video lessons and learn fast
 
                Tuning:

e|---------------------------------------------------------------------------|
B|---------------------------------------------------------------------------|
G|-11-10---10---9--7--5------------------------------------------------------|
D|---------------------------------------------------------------------------|
A|---------------------------------------------------------------------------|
E|---------------------------------------------------------------------------|

e|--5-4-5-4-5-5-4-5-4--------------------------------------------------------|
B|---------------------------------------------------------------------------|
G|---------------------------------------------------------------------------|
D|---------------------------------------------------------------------------|
A|---------------------------------------------------------------------------|
E|---------------------------------------------------------------------------|

e|---------------------------------------------------------------------------|
B|---------------------------------------------------------------------------|
G|-11-10---10---9--7--5------------------------------------------------------|
D|---------------------------------------------------------------------------|
A|---------------------------------------------------------------------------|
E|---------------------------------------------------------------------------|


e|--------4-----------4----------4---------4------7--7-7-8--7--7--7--7-8--7--|
B|--5--8-----8-5--8-8----8--8-8-----5--8-8---8-8-----------------------------|
G|---------------------------------------------------------------------------|
D|---------------------------------------------------------------------------|
A|---------------------------------------------------------------------------|
E|---------------------------------------------------------------------------|

e|---------------------------------------------------------------------------|
B|---------------------------------------------------------------------------|
G|-11-10---10---9--7--5------------------------------------------------------|
D|---------------------------------------------------------------------------|
A|---------------------------------------------------------------------------|
E|---------------------------------------------------------------------------|


e|--15-15--16-16--15-15--12-12-----------------------------------------------|
B|---------------------------------------------------------------------------|
G|---------------------------------------------------------------------------|
D|---------------------------------------------------------------------------|
A|---------------------------------------------------------------------------|
E|---------------------------------------------------------------------------|

At the end of this, the fret it ends on for the break is d-10

e|---------------------------------------------------------------------------|
B|---------------------------------------------------------------------------|
G|-11-10---10---9--7--5------------------------------------------------------|
D|---------------------------------------------------------------------------|
A|---------------------------------------------------------------------------|
E|---------------------------------------------------------------------------|

e|--------4-----------4--------7--7-7-8--7--7--7--7-8--7-7-|
B|--5--8-----8-5--8-8----8--8------------------------------|
G|---------------------------------------------------------------------------|
D|---------------------------------------------------------------------------|
A|---------------------------------------------------------------------------|
E|---------------------------------------------------------------------------|

e|---------------------------------------------------------------------------|
B|---------------------------------------------------------------------------|
G|-11-10---10---9--7--5------------------------------------------------------|
D|---------------------------------------------------------------------------|
A|---------------------------------------------------------------------------|
E|---------------------------------------------------------------------------|




For the next bride, ride the b-15, then continue to the following:

e|--5-4-5-4-5-5-4-5-4--------------------------------------------------------|
B|---------------------------------------------------------------------------|
G|---------------------------------------------------------------------------|
D|---------------------------------------------------------------------------|
A|---------------------------------------------------------------------------|
E|---------------------------------------------------------------------------|

e|--15-15--16-16--15-15--12-12--x2--12-12-13-13-15-15-12-12------------------|
B|---------------------------------------------------------------------------|
G|---------------------------------------------------------------------------|
D|---------------------------------------------------------------------------|
A|---------------------------------------------------------------------------|
E|---------------------------------------------------------------------------|


e|---------------------------------------------------------------------------|
B|---------------------------------------------------------------------------|
G|--5---10---8---7-----------------------------------------------------------|
D|--5---10---8---7-----------------------------------------------------------|
A|--3---8----6---5-----------------------------------------------------------|
E|---------------------------------------------------------------------------|
            
Submit corrections


        Nintendo Blood  lessons Hard to play? Try these video lessons and learn fast Nintendo Blood  lessons
        
↑ Back to top | Tablatures and chords for acoustic guitar and electric guitar, ukulele, drums are parodies/interpretations of the original songs. You may use it for private study, scholarship, research or language learning purposes only