» » »

Julian Casablancas - Johan Von Bronx Tabs

Artists:  A B C D E F G H I J K L M N O P Q R S T U V W X Y Z # 

Johan Von Bronx Tabs

(ver. 1) Click to play this song!
Julian Casablancas
 Rating:
3.7/5 (22 votes)

 Johan Von Bronx  lessons Tabs too difficult? Try these video lessons and learn fast
 
                Tuning:standard EADGBe



0:20 Intro riff 
e|---------------------------------------------------------------------------|
B|---------------------------------------------------------------------------|
G|-9-9-9\6--6-6-6/9-9-9\6--6-6-6---------------------------------------------|
D|-0-0-0----0-0-0-0-0-0----0-0-0-/11-11-11\7--7-7-7-/11-11-11\7-7-7-7--------|
A|--------------------------------0--0--0-----0-0-0--0--0--0----0-0-0--------|
E|---------------------------------------------------------------------------|


0:35 Keyboard chords for guitar
    C#   D    E    C#   B
e|---------------------------------------------------------------------------|
B|--6----7----9----6----4----------------------------------------------------|
G|--6----7----9----6----4----------------------------------------------------|
D|--6----7----9----6----4----------------------------------------------------|
A|--4----5----7----4----2----------------------------------------------------|
E|---------------------------------------------------------------------------|

1:31 Keyboard chords for guitar
    D                F#m                  E                C#m
e|---------------------------------------------------------------------------|
B|--7------------------10-----------------9------------------5---------------|
G|--7------------------11-----------------9------------------6---------------|
D|--7------------------11-----------------9------------------6---------------|
A|--5------------------9------------------7------------------4---------------|
E|---------------------------------------------------------------------------|
 |Guitar
e|---------------------------------------------------------------------------|
B|------10--10-------------10--10-------------12--12------------9-9----------|
G|----11--11--11--11-----11--11--11--11-----13--13--13--13-----9-9-9--9------|
D|--12----------12-----11----------11-----14----------14-----11-----11-------|
A|---------------------------------------------------------------------------|
E|---------------------------------------------------------------------------|


1:51 add the bottom riff
    D                   F#m               E                 C#m
e|---------------------------------------------------------------------------|
B|--7-------------------10----------------9------------------5---------------|
G|--7-------------------11----------------9------------------6---------------|
D|--7-------------------11----------------9------------------6---------------|
A|--5-------------------9-----------------7------------------4---------------|
E|---------------------------------------------------------------------------|
 |Guitar 1
e|---------------------------------------------------------------------------|
B|------10--10-------------10--10-------------12--12------------9-9----------|
G|----11--11--11--11-----11--11--11--11-----13--13--13--13-----9-9-9--9------|
D|--12----------12-----11----------11-----14----------14-----11-----11-------|
A|---------------------------------------------------------------------------|
E|---------------------------------------------------------------------------|
|Guitar 2
e|--10-9-7-----------------7-9--------9-7------------------------------------|
B|--------10----------10-10--------------10-9-----------9-9------------------|
G|-------------------------------------------10-10-10-10---10-10-------------|
D|---------------------------------------------------------------------------|
A|---------------------------------------------------------------------------|
E|---------------------------------------------------------------------------|
    Palm muted--------------------------------------------------



1:56 Add the bottom riff
    D                F#m              E                C#m
e|---------------------------------------------------------------------------|
B|--7----------------10---------------9-----------------5--------------------|
G|--7----------------11---------------9-----------------6--------------------|
D|--7----------------11---------------9-----------------6--------------------|
A|--5----------------9----------------7-----------------4--------------------|
E|---------------------------------------------------------------------------|
 |guitar 1
e|---------------------------------------------------------------------------|
B|------10--10-------------10--10-------------12--12------------9-9----------|
G|----11--11--11--11-----11--11--11--11-----13--13--13--13-----9-9-9--9------|
D|--12----------12-----11----------11-----14----------14-----11-----11-------|
A|---------------------------------------------------------------------------|
E|---------------------------------------------------------------------------|
 |guitar 2
e|---------------------------------------------------------------------------|
B|---------------------------------------------------------------------------|
G|---------------------------------------------------------------------------|
D|--7-7-10b11~~7----7-7-10b11~~7-----6--6-6--6-6-6---------------------------|
A|-------------------------------------------------7--7-9-9------------------|
E|---------------------------------------------------------------------------|


2:09-2:22 
    D                F#m              E                C#m
e|---------------------------------------------------------------------------|
B|--7----------------10---------------9-----------------5--------------------|
G|--7----------------11---------------9-----------------6--------------------|
D|--7----------------11---------------9-----------------6--------------------|
A|--5----------------9----------------7-----------------4--------------------|
E|---------------------------------------------------------------------------|
 |guitar 1
e|---------------------------------------------------------------------------|
B|--10~~------10-----10~~------10-----9~~----9-------------------------------|
G|------11--11--11-------11--11--11------9--9-9------------------------------|
D|---------------------------------------------------------------------------|
A|---------------------------------------------------------------------------|
E|---------------------------------------------------------------------------|
 |guitar 2
e|-14-14-14-----14---14-14-14-----14---12-12-12-----12---17-17-16-16-14h16p14---|
B|---------15-15--15---------15-15--14---------14-14--14---------------------17-|
G|------------------------------------------------------------------------------|
D|------------------------------------------------------------------------------|
A|------------------------------------------------------------------------------|
E|------------------------------------------------------------------------------|


2:22-3:26 
    C#   D    E    C#   B
e|---------------------------------------------------------------------------|
B|--6----7----9----6----4----------------------------------------------------|
G|--6----7----9----6----4----------------------------------------------------|
D|--6----7----9----6----4----------------------------------------------------|
A|--4----5----7----4----2----------------------------------------------------|
E|---------------------------------------------------------------------------|


3:26-3:39
e|---------------------------------------------------------------------------|
B|----12--12--12--12--14--14--14--14--11--11--11--11--13--13--13--13---------|
G|--11--11--11--11--13--13--13--13--10--10--10--10--12--12--12--12-----------|
D|---------------------------------------------------------------------------|
A|---------------------------------------------------------------------------|
E|---------------------------------------------------------------------------|
 |
e|-------6-------6-------6-------6---------10-------10-------10-------10-----|
B|---6-------6-------6-------6---------10-------10-------10-------10---------|
G|-----8-------8-------8-------8---------12-------12-------12-------12-------|
D|--8------8-------8-------8---------12-------12-------12-------12-----------|
A|---------------------------------------------------------------------------|
E|---------------------------------------------------------------------------|


3:39 B                    Bsus2    Gsus2
e|----------------------------------------------------------------------------|
B|--0 ---------------------2---------0----------------------------------------|
G|--4----------------------4---------2----------------------------------------|
D|--4--x12-----------------4--x4-----0---x16----------------------------------|
A|--2----------------------2---------x----------------------------------------|
E|-----------------------------------3----------------------------------------|
 |
e|--------7-------9-------9-------9-----------12----------12-------12------12--|
B|----7-------7-------7-------7---------10----------10--------10-------10------|
G|------9-------9-------9-------9----------12----------12--------12------12----|
D|--9-------9-------9-------9--------12----------12---------12-------12--------|
A|-----------------------------------------------------------------------------|
E|-----------------------------------------------------------------------------|


4:05 G       Bm       A        F#m
e|--3--------7--------5--------2-------------------------------------------------|
B|--3--------7--------5--------2-------------------------------------------------|
G|--4--------7--------6--------2-------------------------------------------------|
D|--5--------9--------7--------4-------------------------------------------------|
A|--5--------9--------7--------4-------------------------------------------------|
E|--3--------7--------5--------2-------------------------------------------------|
 |guitar 1
e|---------------------------------------------------------------------------|
B|----8-8------7-7------5-5------2-2-----------------------------------------|
G|---7-7-7-7--7-7-7-7--6-6-6-6--2-2-2-2--------------------------------------|
D|--9-----9--9-----9--7-----7--4-----4---------------------------------------|
A|---------------------------------------------------------------------------|
E|---------------------------------------------------------------------------|
|guitar 2
e|---------------------------------------------------------------------------|
B|---------------------------------------------------------------------------|
G|--7-7-9b10~~9--7-9b10~~9-6--6-6-6-6-------6--------------------------------|
D|-----------------------------------7-7-9-9---------------------------------|
A|---------------------------------------------------------------------------|
E|---------------------------------------------------------------------------|
  
4:31
e|---------------------------------------------------------------------------|
B|---------------------------------------------------------------------------|
G|--6-6\2-2----/9-9\6-6---9-9\6-6--------------------------------------------|
D|--0-0-----0-----------7--------7-------------------------------------------|
A|--------------0-0-----0-0-0----0-------------------------------------------|
E|---------------------------------------------------------------------------|



4:51
Here are two ways to play the implied chords for this part. He only plays the 
bottom single note harmony on guitar though 
    Bm         D          Bbm dim       F#7
e|---------------------------------------------------------------------------|
B|---------------------------------------------------------------------------|
G|--7----------11---------6------------3-------------------------------------|
D|--9----------12---------8------------2-------------------------------------|
A|--9----------12---------7------------4-------------------------------------|
E|--7----------10---------6------------2-------------------------------------|
 or
e|-----------2--2-0--------------------3-2--pull off with pinkie-------------|
B|--3--------3--3-3----2-------------2-2-2-----------------------------------|
G|--4--------2--2-2----3-------------3---------------------------------------|
D|--4--------0--0-0----2-------------2---------------------------------------|
A|--2------------------------------------------------------------------------|
E|----------------------------------2-played with thumb----------------------|
 |
e|---------------------------------------------------------------------------|
B|---------------------------------------------------------------------------|
G|---------------------------------------------------------------------------|
D|---------------------------------------------------------------------------|
A|--2-2-2-2-2-2-5-5-5-5-5-1-1-1-1-1-1----------------------------------------|
E|------------------------------------2-2-2-2-2------------------------------|


5:17
e|---------------------------------------------------------------------------|
B|---------------------------------------------------------------------------|
G|---------------------------------------------------------------------------|
D|--4-4-4-4-4-7-7-7-7-7-2-2-2-2-2-2------------------------------------------|
A|--2-2-2-2-2-5-5-5-5-5-1-1-1-1-1-1------------------------------------------|
E|---------------------------------------------------------------------------|



5:44 
    Bm         D          Bbm dim       F#7
e|---------------------------------------------------------------------------|
B|---------------------------------------------------------------------------|
G|--7----------11---------6------------3-------------------------------------|
D|--9----------12---------8------------2-------------------------------------|
A|--9----------12---------7------------4-------------------------------------|
E|--7----------10---------6------------2-------------------------------------|
 or
e|-----------2--2-0--------------------3-2--pull off with pinkie-------------|
B|--3--------3--3-3----2-------------2-2-2-----------------------------------|
G|--4--------2--2-2----3-------------3---------------------------------------|
D|--4--------0--0-0----2-------------2---------------------------------------|
A|--2------------------------------------------------------------------------|
E|----------------------------------2-played with thumb----------------------|
 |
e|---------------------------------------------------------------------------|
B|---------------------------------------------------------------------------|
G|---------------------------------------------------------------------------|
D|---------------------------------------------------------------------------|
A|--2-2-2-2-2-2-5-5-5-5-5-1-1-1-1-1-1----------------------------------------|
E|------------------------------------2-2-2-2-2------------------------------|
            
Submit corrections


        Johan Von Bronx  lessons Hard to play? Try these video lessons and learn fast Johan Von Bronx  lessons
        
↑ Back to top | Tablatures and chords for acoustic guitar and electric guitar, ukulele, drums are parodies/interpretations of the original songs. You may use it for private study, scholarship, research or language learning purposes only