» » »

Julian Casablancas - Human Sadness Tabs

Artists:  A B C D E F G H I J K L M N O P Q R S T U V W X Y Z # 

Human Sadness Tabs

(ver. 1) Click to play this song!
Julian Casablancas
 Rating:
4/5 (4 votes)

 Human Sadness  lessons Tabs too difficult? Try these video lessons and learn fast
 
                Tuning:
Intro
e|---------------------------------------------------------------------------|
B|---------------------------------------------------------------------------|
G|---------------------------------------------------------------------------|
D|-----+-(harmonic on the 12 fret of D, if you want)-------------------------|
A|----------------------------------------------------9----11----------------|
E|--------------------------------------------------------------10-----------|

e|---------------------------------------------------------------------------|
B|---------------------------------------------------------------------------|
G|------------------------(or you can play it an octave higher >---12-9-10-9-|
D|---------------------------------------------------------------------------|
A|------------10--7--8--7----------------------------------------------------|
E|--10-----------------------------------------------------------------------|
Main Riff #1
e|---------------------------------------------------------------------------|
B|---------------------------------------------------------------------------|
G|---------------------------------------------------------------------------|
D|---------------------------------------------------------------------------|
A|---5--5/7-5/7--5\--3/5\3----3\2-0-2-0-2h3------/5--------------------------|
E|---------------------------------------------------------------------------|
Main riff #2
e|-----------------------------------------------------------------13-12-----|
B|-------------------------15-----------------------------------13------13---|
G|---------------------------16----16\14--16-----------------12-----------12-|
D|------------14h15h17----------17-----------17--15-14----14-----------------|
A|---14h15h17----------------------------------------------------------------|
E|---------------------------------------------------------------------------|

e|---------------------------------------------------------------------------|
B|---------------------------------------------------------------------------|
G|---------------------------------------------------------------------------|
D|--15\14--------------------------------------------------------------------|
A|---------------------------------------------------------------------------|
E|---------------------------------------------------------------------------|

repeat 2 times. On the third, play this
e|---------------------------------------------------------------------------|
B|-------------------------15--------------------17--------------------------|
G|---------------------------16----16\14--16---------------------------------|
D|------------14h15h17----------17-----------17------------------------------|
A|---14h15h17----------------------------------------------------------------|
E|---------------------------------------------------------------------------|

"And I don?t need your tie" 2:19
e|---------------------------------------------------------------------------|
B|---------------------------------------------------------------------------|
G|----------------------12-12-14-12----12------------------------------------|
D|----------------------------------14----12-14-12--10--12----13--14---\7-10-|
A|-----5\4-5-6--0--3---------------------------------------------------------|
E|---------------------------------------------------------------------------|

e|--------------------------------------------------12-----------------------|
B|-----------------------------------------------------15-13-12---15-13------|
G|--12-14-------12-----------------------------------------------------------|
D|--------12-14-----14--12-12-14-12-12-14-12-10------------------------------|
A|---------------------------------------------------------------------------|
E|---------------------------------------------------------------------------|

e|-----------------------------------17--------------------------------------|
B|--12h13p12---------------17--------19b-------------------------------------|
G|-----------14\12-----------------------------------------------------------|
D|-----------------15\14-----------------------------------------------------|
A|---------------------------------------------------------------------------|
E|---------------------------------------------------------------------------|
Solo #1
guitar 1
e|---------------------------------------------------------------------------|
B|---------------------------------------------------------------------------|
G|---------------------------------------------------------------------------|
D|---12-12-12-12-12-12----\5-----10-10-10-10--\3\2---------------------------|
A|---------------------------------------------------------------------------|
E|---------------------------------------------------------------------------|
guitar 2
e|---------------------------------------------------------------------------|
B|---------------------------------------------------------------------------|
G|---10br-9-7-9b---9-10-12---10-9-----10----------------9-7-9-10-9-7-9-------|
D|--------------------------------12--------10-------------------------------|
A|---------------------------------------12----------------------------------|
E|---------------------------------------------------------------------------|

e|---------------------------------------------------------------------------|
B|----------------------------------------------------------------10--10-----|
G|--9-10-12----10-9------10----------------12(tremolo)--9-10-12---12b-12b----|
D|-------------------12--------10--------------------------------------------|
A|--------------------------12-----------------------------------------------|
E|---------------------------------------------------------------------------|

e|---------------------------------------------------------------------------|
B|---------------------------------------------------------------------------|
G|--12-10-9------------------------------------------------------------------|
D|-----------12-10---9h10p9--7-----------------------------------------------|
A|-----------------------------------14b(bend upwards slowly, tremolo)-------|
E|---------------------------------------------------------------------------|

e|---------------------------------------------------------------------------|
B|----------------------------------------------12---------------------------|
G|----------------12-11-12-(still tremolo)------14b--------------------------|
D|--18(tremolo)--------------------------------------------------------------|
A|---------------------------------------------------------------------------|
E|---------------------------------------------------------------------------|

"Never wanna spell it out" 3:13 (go with Julian's voice)
e|---------------------------------------------------------------------------|
B|---------------------------------------------------------------------------|
G|---------------------------------------------------------------------------|
D|---12------12-14-12-14-12-14---12-----14-12--------------------/14-14------|
A|--------------------------------------------15-14-12-10-8-7-7--------------|
E|---------------------------------------------------------------------------|

e|---------------------------------------------------------------------------|
B|---------------------------------------------------------------------------|
G|---------------------------------------------------------------------------|
D|--12-14-12-14-12-14---12----12--12----12h14-14------14-12-15-12-14-12-15---|
A|--------------------------15--15---14--------------------------------------|
E|---------------------------------------------------------------------------|

e|---------------------------------------------------------------------------|
B|---------------------------------------------------------------------------|
G|---------------------------------------------------------17-16-17-16-17-19-|
D|--15-14-17--14-15-14-17------14-14-14-12-15-12-14-12-15--------------------|
A|---------------------------------------------------------------------------|
E|---------------------------------------------------------------------------|

e|---------------------------------------------------------------------------|
B|---------------------------------------------------------------------------|
G|----16-17----repeat main riff #2-------------------------------------------|
D|---------------------------------------------------------------------------|
A|---------------------------------------------------------------------------|
E|---------------------------------------------------------------------------|
4:10  Am       D         G        C
e|----5--------5---------3--------0------------------------------------------|
B|----5--------7---------3--------1------------------------------------------|
G|----5--------7---------4--------0------------------------------------------|
D|----7--------7---------5--------2------------------------------------------|
A|----7--------5---------5--------3--3--2-0----------------------------------|
E|----5------------------3---------------------------------------------------|
repeat X amount of times

5:12
e|---------------------------------------------------------------------------|
B|---------------------------------------------------------------------------|
G|---------------------------------------------------------------------------|
D|--3-3-3---12-12-12-12-12---7-7-7--10-10-10---9--7--------------------------|
A|---------------------------------------------------------------------------|
E|--1-1-1-//10-10-10-10-10-\\5-5-5//8--8--8-\\-7--5--------------------------|

5:55 "Mine all mine" "wait your turn"                 "slice his hand"
e|----8----7----5------8----7----8--------8--7--5------10-----7----8---------|
B|---------------------------------------------------------------------------|
G|----5----4----2------5----4----5--------5--4--2-------7-----4----5---------|
D|---------------------------------------------------------------------------|
A|---------------------------------------------------------------------------|
E|---------------------------------------------------------------------------|
Solo #2
e|----10------10-8------8--10------10--8------8-8------8-7-----7-8------8-7--|
B|---------10--------10---------10---------10-------10------10-------10------|
G|------10---------10--------10---------10--------9-------9--------9---------|
D|---------------------------------------------------------------------------|
A|---------------------------------------------------------------------------|
E|---------------------------------------------------------------------------|

e|-------7--------10------10-10------7h8p7-------7h8p7-----7-8------8-8-----8|
B|----10---------------10---------10---------10---------10-------10------10--|
G|--9---------------10---------10----------10---------9--------9-------9-----|
D|---------------------------------------------------------------------------|
A|---------------------------------------------------------------------------|
E|---------------------------------------------------------------------------|

e|--7h8p7(listen to song for repetition)---5--7-5----------------------------|
B|---------------------------------------------------------------------------|
G|---------------------------------------------------------------------------|
D|---------------------------------------------------------------------------|
A|---------------------------------------------------------------------------|
E|---------------------------------------------------------------------------|

e|--13-15-16\8----15-13-12h13p12-10--12-10h12p10-12--/15-13-15---------------|
B|---------------------------------------------------------------------------|
G|---------------------------------------------------------------------------|
D|---------------------------------------------------------------------------|
A|---------------------------------------------------------------------------|
E|---------------------------------------------------------------------------|

e|-----------------------15--13-12-13---12-13----12h13p12-10-----------------|
B|--13-13b15-13-12-13------------------------10-------------13h15p13-12-13-15|
G|---------------------------------------------------------------------------|
D|---------------------------------------------------------------------------|
A|---------------------------------------------------------------------------|
E|---------------------------------------------------------------------------|

e|---------------------------------17--22-22-20-20-19-19-17-17-19-22-20-19-20-17|
B|-17p13----17p13----13h15p13-15-17---------------------------------------------|
G|--------14-------14-----------------------------------------------------------|
D|------14-------14-------------------------------------------------------------|
A|------------------------------------------------------------------------------|
E|------------------------------------------------------------------------------|

e|---------------------------------------------------------------------------|
B|---18----17----15-----------17----15---------------13----------------------|
G|---------------------------------------------------------------------------|
D|---------------------------------------------------------------------------|
A|-----17~---15~---14~-15-15h17--15~---14h15p14--\12----12-------------------|
E|---------------------------------------------------------------------------|

e|-10------10-10-----10---------------------15---------------------------------|
B|------10--------10------12h13p12-10-12-13---12-13----12-13------13-12---12-13|
G|---10---------10---------------------------------------------14-------14-----|
D|-----------------------------------------------------------14-------14-------|
A|-----------------------------------------------------------------------------|
E|-----------------------------------------------------------------------------|

e|------------------------13------12-----------------------------------------|
B|----12---12----12-13-------15-----15---13-12-13-12----12-------15--12------|
G|------14----14---------------14-----14-------------14----14-----------14-12|
D|------------------------------------------------------------14-------------|
A|---------------------------------------------------------------------------|
E|---------------------------------------------------------------------------|

e|--------------------------20-19-17-----------------------------------------|
B|--------------13-----------------------------------------------------------|
G|---------------------------------------------------------------------------|
D|--15-14--------------------------------------------------------------------|
A|---------------------------------------------------------------------------|
E|---------------------------------------------------------------------------|

repeat main riff #1

8:10
   "All the time" (go with Julian's voice)
e|---------------------------------------------------------------------------|
B|---------------------------------------------------------------------------|
G|---------------------------------------------------------------------------|
D|---------------------------------------------------------------------------|
A|10/12--\7/---14-14--15-14-12---------10/12--7/--14-----19--15--17--12------|
E|---------------------------------------------------------------------------|
  "Hits you on the head when nobody?s there"   Then he says ?Come here could you fix my tie??
e|---------------------------------------------------------------------------|
B|---------------------------------------------------------------------------|
G|---------------------------------------------------------------------------|
D|---------------------------------------------------------------------------|
A|--0---3---5---7---5----0---3-5-7-----5--------0---3---5----0-3-5-7-5-0--7-5|
E|---------------------------------------------------------------------------|
8:33
e|--10--10-----10---------7---7---7------8---8---8-----------------12--------|
B|--10--10-----10-------8-8-8-8-8-8----8-8-8-8-8-8-----------13------13----12|
G|----10----10----10----7---7---7------9---9---9------------------------12---|
D|----------------------------------------------------10-10-----10-----------|
A|---------------------------------------------------------------------------|
E|---------------------------------------------------------------------------|
   "Show me where to go don?t get angry so quickly,    f**k depression?
e|---------------------------------------------------------------------------|
B|---10--13--15---17-15--10---13--15-17-15---10-13------17---13--15--10------|
G|-----------------------------------------------------(you can bend the 15--|
D|-----------------------------------------------------a little if you want)-|
A|---------------------------------------------------------------------------|
E|---------------------------------------------------------------------------|
repeat main riff #2 
last repeat finishes with a 
e|---------------------------------------------------------------------------|
B|----------18-17------------------------------------------------------------|
G|---------------------------------------------------------------------------|
D|---------------------------------------------------------------------------|
A|---------------------------------------------------------------------------|
E|---------------------------------------------------------------------------|

9:22
bass goes something like this
e|---------------------------------------------------------------------------|
B|---------------------------------------------------------------------------|
G|---------------------------------------------------------------------------|
D|---------------------------------------------------------------------------|
A|-----------------------------------3--3-2-0--------------------------------|
E|-10------------10----------3-----------------------------------------------|

e|---------------------------------------------------------------------------|
B|---------------------------------------------------------------------------|
G|---------------------------------------------------------------------------|
D|---------------------------------------------------------------------------|
A|----------------------------5h7-5--3-2-----3--3-2--------------------------|
E|---5----7-8-10----7-8-10---------------------------5-----------------------|repeat this part

keyboard does this
e|--2-2--2-2--2-2--2-2--3-3-3-3---0-0-0-0------------------------------------|
B|--1-1--1-1--1-1--1-1--3-3-3-3---1-1-1-1------------------------------------|
G|--2-2--2-2--2-2--2-2--0-0-0-0---0-0-0-0------------------------------------|
D|--0-0--0-0--0-0--0-0--0-0-0-0---2-2-2-2------------------------------------|
A|-------3-3-------3-3--2-2-2-2---3-3-3-2------------------------------------|
E|----------------------3-3-3-3----------------------------------------------|repeat till end
            
Submit corrections


        Human Sadness  lessons Hard to play? Try these video lessons and learn fast Human Sadness  lessons
        
↑ Back to top | Tablatures and chords for acoustic guitar and electric guitar, ukulele, drums are parodies/interpretations of the original songs. You may use it for private study, scholarship, research or language learning purposes only