» » »

Julian Casablancas - Business Dog Tabs

Artists:  A B C D E F G H I J K L M N O P Q R S T U V W X Y Z # 

Business Dog Tabs

(ver. 1) Click to play this song!
Julian Casablancas
 Rating:
3.2/5 (23 votes)

 Business Dog  lessons Tabs too difficult? Try these video lessons and learn fast
 
                Intro:

Guitar 1
e|-------------------------------12---------14--------------------------------|
B|---------14---------12------10---------12-----------------------------------|  x4
G|-----11---------9-------7----------9----------------------------------------|
D|--9---------7---------------------------------------------------------------|
A|----------------------------------------------------------------------------|
E|----------------------------------------------------------------------------|

Guitar 2
d#|---------------------------------------------------------------------------|
A#|---------------------------------------------------------------------------|  x4
F#|-----------------------------10---------12---------------------------------|
C#|---------12-------10------8---------10-------------------------------------|
G#|-----10--------8------6----------8-----------------------------------------|
D#|--8--------6---------------------------------------------------------------|


Pre-Chorus:

Guitar 1
e|----------------------------------------------------------------------------|
B|----------------------------------------------------------------------------|  x2
G|--9--9--9--9---12--12---10-10-10-10--12--12---------------------------------|
D|--9--9--9--9---12--12---10-10-10-10--12--12---------------------------------|
A|--7--7--7--7---10--10---8--8--8--8---10--10---------------------------------|
E|----------------------------------------------------------------------------|

Guitar 2
D#|---------------------------------------------------------------------------|
A#|---------------------------------------------------------------------------|  x2
F#|---------------------------------------------------------------------------|
C#|--3--3--3--3---6--6---4--4--4--4---6--6------------------------------------|
G#|--3--3--3--3---6--6---4--4--4--4---6--6------------------------------------|
D#|--1--1--1--1---4--4---2--2--2--2---4--4------------------------------------|


Verse:

Guitar 1
e|-------------------------------12---------14--------------------------------|
B|---------14---------12------10---------12-----------------------------------|  x8
G|-----11---------9-------7----------9----------------------------------------|
D|--9---------7---------------------------------------------------------------|
A|----------------------------------------------------------------------------|
E|----------------------------------------------------------------------------|

Guitar 2
d#|---------------------------------------------------------------------------|
A#|---------------------------------------------------------------------------|  x8
F#|-----------------------------10---------12---------------------------------|
C#|---------12-------10------8---------10-------------------------------------|
G#|-----10--------8------6----------8-----------------------------------------|
D#|--8--------6---------------------------------------------------------------|

Chorus

Guitar 1
e|----------------------------------------------------------------------------|
B|----------------------------------------------------------------------------|
G|--9--9----9--9--9----9--9--9----9--11-11---11-8--8----8--8--8----8--8--8----|
D|--9--9----9--9--9----9--9--9----9--11-11---11-8--8----8--8--8----8--8--8----|
A|--7--7----7--7--7----7--7--7----7--9--9----9--6--6----6--6--6----6--6--6----|
E|----------------------------------------------------------------------------|

e|----------------|
B|----------------|  x4
G|--8--11-11------|
D|--8--11-11------|
A|--6--9--9-------|
E|----------------|

Guitar 2
d#|---------------------------------------------------------------------------|
A#|---------------------------------------------------------------------------|
F#|---------------------------------------------------------------------------|
C#|--3--3----3--3--3----3--3--3----3--5--5----5--2--2----2--2--2----2--2--2---|
G#|--3--3----3--3--3----3--3--3----3--5--5----5--2--2----2--2--2----2--2--2---|
D#|--1--1----1--1--1----1--1--1----1--3--3----3--0--0----0--0--0----0--0--0---|

d#|------------ --|
A#|---------------|  x4
F#|---------------|
C#|--2--5--5------|
G#|--2--5--5------|
D#|--0--3--3------|

Bridge

Guitar 1
e|----------------------------------------------------------------------------|
B|----------------------------------------------------------------------------|  x4
G|----------------------------------------------------------------------------|
D|--5--5---5--5--5-------------------------5--5---5--5--5---------------------|
A|--5--5---5--5--5-------------------------5--5---5--5--5---------------------|
E|--3--3---3--3--3-------------------------3--3---3--3--3---------------------|

Guitar 2
d#|---------------------------------------------------------------------------|
A#|---------------------------------------------------------------------------|  x5
F#|---------------------------------------------------------------------------|
C#|--6--6---6--6--6---6--6--6--4---5---4---6--6---6--6--6---6--6--6--4---5---4|
G#|--6--6---6--6--6---6--6--6--4---5---4---6--6---6--6--6---6--6--6--4---5---4|
D#|--4--4---4--4--4---4--4--4--2---3---2---4--4---4--4--4---4--4--4--2---3---2|

Bridge(cont.)

Guitar 1
e|----------------------------------------------------------------------------|
B|--12-------------------15------14------10-----------------------------------|
G|------------11--------------------------------------------------------------|  x2
D|----------------------------------------------------------------------------|
A|----------------------------------------------------------------------------|
E|----------------------------------------------------------------------------|

Guitar 2
d#|---------------------------------------------------------------------------|
A#|---------------------------------------------------------------------------|  x4
F#|-----------------------------10---------12---------------------------------|
C#|---------12-------10------8---------10-------------------------------------|
G#|-----10--------8------6----------8-----------------------------------------|
D#|--8--------6---------------------------------------------------------------| 





Order of tabs:
Intro
Pre-Chorus
Verse
Pre-Chorus
Chorus
Verse
Chorus
Bridge
Chorus            
Submit corrections


        Business Dog  lessons Hard to play? Try these video lessons and learn fast Business Dog  lessons
        
↑ Back to top | Tablatures and chords for acoustic guitar and electric guitar, ukulele, drums are parodies/interpretations of the original songs. You may use it for private study, scholarship, research or language learning purposes only