» » »

Julian Casablancas - 30 Minute Boyfriend Tabs

Artists:  A B C D E F G H I J K L M N O P Q R S T U V W X Y Z # 

30 Minute Boyfriend Tabs

(ver. 1) Click to play this song!
Julian Casablancas
 Rating:
4.1/5 (31 vote)

 30 Minute Boyfriend lessons Tabs too difficult? Try these video lessons and learn fast
 
                intro (bass synth)           Verse              synth parts during verse

e|--------------------------|--17----17-17----||------------|------------|
b|:------------------------:|:-17----17-17---:||--5---------|------------|
g|--------------------------|-----------------||-----5------|------------|
d|--------------------------|-----------------||--------7---|--2---------|
a|--------------------------|-----------------||------------|-----3--0---|
E|--5-5-5-5---0---5-5-5-5---|-----------------||------------|-------(5)--|


CHORUS   XS=16    xs=8

e|-------|-------|-------|-------------|
b|:------|-------|-------|------------:|
g|-------|-------|-------|-------------|
d|-14-XS-|-15-XS-|-15-XS-|-15-xs-12-xs-|
a|-------|-------|-------|-------------|
E|-------|-------|-------|-------------|

postchorus
1:11
   riffA         riffB                                                                      *Coda 2nd
e|------------||------------|------------|------------|------------|------------|-----------*|------------|
b|------------||:-----------|------------|------------|------------|------------|------------|------------|
g|------------||------------|------------|------------|------------|------------|------------|------------|
d|----------5-||-3-5-3-5--3-|------------|-2-3-2-3--2-|------------|-2-3-2-3--2-|------------|-0-2-0-2--0-|
a|---2--2-----||------------|-3-5-3-5--3-|------------|-0-2-0-2--0-|------------|-2-3-2-3--2-|------------|
E|-5------5---||------------|------------|------------|------------|------------|------------|------------|

          2xs  *Coda
e|------------|*------------| * Note: riffB repeat, 2nd time at *coda skip measure bars to the next *Coda
b|-----------:|-------------|                                         
g|------------|-------------|
d|------------|-0-2-0-2-----|
a|-0-2-0-2--0-|---------5-2-|
E|------------|-------------|

            
Submit corrections


        30 Minute Boyfriend lessons Hard to play? Try these video lessons and learn fast 30 Minute Boyfriend lessons
        
↑ Back to top | Tablatures and chords for acoustic guitar and electric guitar, ukulele, drums are parodies/interpretations of the original songs. You may use it for private study, scholarship, research or language learning purposes only