Home » J » Juan Dela Cruz Band »

Juan Dela Cruz Band - Project Bass

Artists:  A B C D E F G H I J K L M N O P Q R S T U V W X Y Z # 

Project Bass

(ver. 1) Click to play this song!
Juan Dela Cruz Band
Intro: 
G|---------|---------|---|
D|---------|---------|---|
A|---------|-34-5-67-|---|
E|-3-5-6-7-|---------|-0-| then rest 3 bars

Verse 1:
G|---------------|
D|---------------|
A|---7---5-7-5---|
E|-0---7-------7-| 4x

G|---------------|
D|---7---5-7-5---|
A|-0---7-------7-| 
E|---------------| 2X

G|---------------|---------------|
D|---------------|---------------|
A|---7---5-7-5---|---7---5-7-5---|
E|-0---7-------7-|-0---7-------0-|

G|---------------|
D|---9---7-9-7---|
A|-----9-------9-|
E|-7-------------| 2x

G|---------------|
D|---------------|
A|---7---5-7-5---|
E|-0---7-------7-| 

G|---------|---------|
D|---------|---------|
A|---------|-34-5-67-|
E|-3-5-6-7-|---------|

Verse 2: Repeat Verse 1 pattern except last bar, to be played as:
G|----------|
D|----------|
A|-34-5\----|
E|----------|

Chorus 1:
G|------------|------------|--------------|---|
D|------------|------------|--------------|---|
A|-33-------7-|-33-------7-|-33-------7\0-|---|
E|----3-5-7---|----3-5-7---|----3-5-7-----|-0-| rest 3 bars

Verse 3:
G|---------------|
D|---------------|
A|---7---5-7-5---|
E|-0---7-------7-| 4x

G|---------------|
D|---7---5-7-5---|
A|-0---7-------7-| 
E|---------------| 2X

G|---------------|---------------|
D|---------------|---------------|
A|---7---5-7-5---|---7---5-7-5---|
E|-0---7-------7-|-0---7-------0-|

G|---------------|
D|---9---7-9-7---|
A|-----9-------9-|
E|-7-------------| 2x

G|---------------|
D|---------------|
A|---7---5-7-5---|
E|-0---7-------7-| 

G|---------|---------|-------4-|-56-7-89-|
D|---------|---------|-4-5-7---|---------|
A|---------|-34-5-67-|---------|---------|
E|-3-5-6-7-|---------|---------|---------|

Adlib: Repeat Verse 2 pattern

Chorus 2: Repeat Chorus 1 pattern

Verse 4: Repeat Verse 2 pattern

Chorus 3: 
G|------------|------------|------------|
D|------------|------------|------------|
A|-33-------7-|-33-------7-|-33-------7-|
E|----3-5-7---|----3-5-7---|----3-5-7---| 2x

G|---------|---------|-------4-|-56-7-89-|
D|---------|---------|-4-5-7---|---------|
A|---------|-34-5-67-|---------|---------|
E|-3-5-6-7-|---------|---------|---------|
            
Submit corrections

↑ Back to top | Tablatures and chords for acoustic guitar and electric guitar, ukulele, drums are parodies/interpretations of the original songs. You may use it for private study, scholarship, research or language learning purposes only