» » »

Journey - Lovin Touchin Squeezin Bass

Artists:  A B C D E F G H I J K L M N O P Q R S T U V W X Y Z # 

Lovin Touchin Squeezin Bass

(ver. 2) Click to play this song!
Journey
 Rating:
4/5 (4 votes)


 Lovin Touchin Squeezin lessons Tabs too difficult? Try these video lessons and learn fast
 
                A classic by Journey


Tuning: EADG

Time signature: 4/4

r = rest (listen for duration)
\ = slide (high to low)

*My tabs are meant to be read in conjunction with listening to the song.
In other words, there are no specific notations to account for note/rest duration. 
However, you will find that I've made an attempt to strategically space the notes 
and rests within their respective measures in order to represent the appropriate durations.


 INTRO

G|--------------------------------|------------------------------|
D|--------------------------------|------------------------------|
A|0-r---0-0-r---0-0-r---0-0-r---0-|0-r---0-0-r---0-0-r---0-5-0-3-|
E|--------------------------------|------------------------------|


                                                      VERSE 1

                                                      "You make me
|------------------------------|--------------------------------|
|------------------------------|--------------------------------|
|0-r---0-0-r---0-0-r---0---0-3-|0-r---0-0-r---0-0-r---0-0-r---0-|
|------------------------3-----|--------------------------------|


 weep ____"
|--------------------------------|------------------------------|
|--------------------------------|------------------------------|
|0-r---0-0-r---0-0-r---0-0-r---0-|0-r---0-0-r---0-0-r---0-0-2-4-|
|--------------------------------|------------------------------|


                 
|----------------------------4-|-------------------------------|
|------------------------4-7---|------------------------4-7----|
|5-r---5-5-r---5-5-r---5-------|5-r---5-5-r---5-5-r---5-----7\-|
|------------------------------|-------------------------------|



 "Lovin'         touchin'          squeezin'
|---------------------------------|--------------------------------|
|---------------------------------|--------------------------------|
|0-r---0-0-r---0-7-r---7-7-r---7\-|--------------------------------|
|---------------------------------|3-r---3-3-r---3-3-r---3-3-r---3-|


 each  other"
|------------------------------|
|------------------------------|
|------0-0-r---0-0-r---0-5-0-3-|
|3-----------------------------|



VERSE 2

 "When   I'm   alone ......"
|--------------------------------|------------------------------|
|--------------------------------|------------------------------|
|0-r---0-0-r---0-0-r---0-0-r---0-|0-r---0-0-r---0-0-r---0-0-2-4-|
|--------------------------------|------------------------------|


                 
|----------------------------4-|-------------------------------|
|------------------------4-7---|------------------------4-7----|
|5-r---5-5-r---5-5-r---5-------|5-r---5-5-r---5-5-r---5-----7\-|
|------------------------------|-------------------------------|


 "Lovin'         touchin'          squeezin'
|---------------------------------|--------------------------------|
|---------------------------------|--------------------------------|
|0-r---0-0-r---0-7-r---7-7-r---7\-|--------------------------------|
|---------------------------------|3-r---3-3-r---3-3-r---3-3-r---3-|


 each  other"
|------------------------------|
|------------------------------|
|------0-0-r---0-0-r---0-0-----|
|3-------------------------4-3-|



CHORUS 1

       "You're tearing me apart ..."
|--------------------------------|------------------------------|
|--------------------------------|------------------------------|
|--------------------------------|0-r---0-0-r---0-0-r---0-0-----|
|2-r---2-2-r---2-2-r---2-2-r---3-|--------------------------4-3-|



|------------------------------|------------------------------|
|------------------------------|------------------------------|
|------------------------------|0-r---0-0-r---0-0-r---0-0-----|
|2-r---2-2-r---2-2-r---2-2-3-4-|--------------------------4-3-|



|--------------------------------|------------------------------|
|--------------------------------|------------------------------|
|--------------------------------|------------------------------|
|2-r---2-2-r---2-2-r---2-2-r---2-|3-3-3---3-3-3---3-3-3---3-2-1-|



|------------------------------|
|------------------------------|
|------------------------5-3-0-|
|0-0-0---0-0-0---0-r-----------|



VERSE 2



CHORUS 2

       "He's tearing you apart ..."
|--------------------------------|------------------------------|
|--------------------------------|------------------------------|
|--------------------------------|0-r---0-0-r---0-0-r---0-0-----|
|2-r---2-2-r---2-2-r---2-2-r---3-|--------------------------4-3-|



|--------------------------------|------------------------------|
|--------------------------------|------------------------------|
|--------------------------------|0-r---0-0-r---0-0-r---0-0-----|
|2-r---2-2-r---2-2-r---2-2-r---2-|--------------------------4-3-|



|--------------------------------|------------------------------|
|--------------------------------|------------------------------|
|--------------------------------|0-r---0-0-r---0-0-r---0-0-----|
|2-r---2-2-r---2-3-r---3-3-r---3-|--------------------------4-3-|



|--------------------------------|
|--------------------------------|
|--------------------------------|
|2-r---2-2-2-2--3-r--------------|



CHORUS 3 (to fade)

 "Na   na   na na  na  na ..."
|--------------------------------|------------------------------|
|--------------------------------|------------------------------|
|0-r---0-0-r---0-0-r---0-0-r---0-|0-r---0-0-r---0-0-r---0-5-0-3-|
|--------------------------------|------------------------------|



|------------------------------|--------------------------------|
|------------------------------|--------------------------------|
|0-r---0-0-r---0-0-r---0-0-----|--------------------------------|
|--------------------------4-3-|2-----2-2-----2-3-----3-3-----3-|


              (PLEASE RATE THIS TAB / LEAVE COMMENT)    
            
Submit corrections



        Lovin Touchin Squeezin lessons Hard to play? Try these video lessons and learn fast Lovin Touchin Squeezin lessons
        
↑ Back to top | Tablatures and chords for acoustic guitar and electric guitar, ukulele, drums are parodies/interpretations of the original songs. You may use it for private study, scholarship, research or language learning purposes only