» » »

Journey - Ask The Lonely Tabs

Artists:  A B C D E F G H I J K L M N O P Q R S T U V W X Y Z # 

Ask The Lonely Tabs

(ver. 2) Click to play this song!
Journey
 Rating:
4/5 (4 votes)


 Ask The Lonely lessons Tabs too difficult? Try these video lessons and learn fast
 
                Journey
Ask the Lonely


e]-3/-12-13-12----------12--15-15----13--10h12p10----10-12---15-17-15--------]
B]-------------15-13-15---------------------------13-------------------------]
G]---------------------------------------------------------------------------]
D]---------------------------------------------------------------------------]
A]---------------------------------------------------------------------------]
E]---------------------------------------------------------------------------]

e]-12h13p12-10-------12b(13)r12--10----10-12p-10---10------------------------]
B]-------------13-10----------------13-----------13---12b--12--10----10-12---]
G]-------------------------------------------------------12------------------]
D]---------------------------------------------------------------------------]
A]---------------------------------------------------------------------------]
E]---------------------------------------------------------------------------]

e]---------------------------------------------------------------------------]
B]---------------------------------------------------------------------------]
G]-12-12b-10-9-10-12-10-9----------------------------------------------------]
D]-----------------------10-12-/12-12-12-12-12--10h-12p-10--10-9-10----------]
A]---------------------------------------------------------------------------]
E]---------------------------------------------------------------------------]
                                            *[fill]
e]------------------------------------------------------------------------------]
B]------------------------------------------------------------------------------]
G]------------------------------------------------------------------------------]
D]-/9--9-9-9--10--9--7--5--4--/4-4-2--------*-----------------------------------]
A]------------------------------------------------------------------------------]
E]------------------------------------------------------------------------------]

e]-/15-15-15-15-15—15/13-12h13p12-10-12-13-15-17-15-13-12-13-15-15/20-19-19--]
B]---------------------------------------------------------------------------]
G]---------------------------------------------------------------------------]
D]---------------------------------------------------------------------------]
A]---------------------------------------------------------------------------]
E]---------------------------------------------------------------------------]

e]-15-19-19h17-19-19/20------------------------------------------------------]
B]---------------------------------------------------------------------------]
G]---------------------------------------------------------------------------]
D]---------------------------------------------------------------------------]
A]---------------------------------------------------------------------------]
E]---------------------------------------------------------------------------]

Key:
/ = slide 
h = hammer on
p = pull off
b = bend

this is the whole solo except for the part that is labled [fill], it is very short, and 
too fast for me to translate.  Hope you enjoy :)
            
Submit corrections



        Ask The Lonely lessons Hard to play? Try these video lessons and learn fast Ask The Lonely lessons
        
↑ Back to top | Tablatures and chords for acoustic guitar and electric guitar, ukulele, drums are parodies/interpretations of the original songs. You may use it for private study, scholarship, research or language learning purposes only