» » »

Josie And The Pussycats - Wild Child Tabs

Artists:  A B C D E F G H I J K L M N O P Q R S T U V W X Y Z # 

Wild Child Tabs

(ver. 1) Click to play this song!
Josie And The Pussycats
 Rating:
4/5 (4 votes)

 Wild Child lessons Tabs too difficult? Try these video lessons and learn fast
 
                Josie and the Pussycats (The Movie)
Standard Tuning (E,A,D,G,B,E)

There are 2 guitars in the song, one is doing chords the other
is doing lead.  This is the chords, there all correct.  When I 
figure out the lead, I'll post it.  Listen to the song for the 
palm mutes.

Intro  2X
-------------
-------------
-------------
-4/5--5-5-5-5-
-4/5--5-5-5-5-
-2/3--3-3-3-3-

Verse
----------------------------------5-5-5-5-5-5-5-5------------------
-5-5-5-5-5-5-5-5-5-5-5-5-5-5-5-5--5-5-5-5-5-5-5-5--5-5-5-5-5-5-5-5-
-5-5-5-5-5-5-5-5-5-5-5-5-5-5-5-5--3-3-3-3-3-3-3-3--5-5-5-5-5-5-5-5-
-3-3-3-3-3-3-3-3-3-3-3-3-3-3-3-3-------------------3-3-3-3-3-3-3-3-

-7-7-7-7-7-7-7-7--5-5-5-5-5-5-5-5----------------------------------
-7-7-7-7-7-7-7-7--5-5-5-5-5-5-5-5--5-5-5-5-5-5-5-5--5--------------
-5-5-5-5-5-5-5-5--3-3-3-3-3-3-3-3--5-5-5-5-5-5-5-5--5--------------
-----------------------------------3-3-3-3-3-3-3-3--3--------------

Bridge  4X
-------------
-------------
-------------
-4/5--5-5-5-5-
-4/5--5-5-5-5-
-2/3--3-3-3-3-
            
Submit corrections


        Wild Child lessons Hard to play? Try these video lessons and learn fast Wild Child lessons
        
↑ Back to top | Tablatures and chords for acoustic guitar and electric guitar, ukulele, drums are parodies/interpretations of the original songs. You may use it for private study, scholarship, research or language learning purposes only