» » »

Josh Ritter - The Curse Bass

Artists:  A B C D E F G H I J K L M N O P Q R S T U V W X Y Z # 

The Curse Bass

(ver. 1) Click to play this song!
Josh Ritter
 Rating:
4/5 (4 votes)

 The Curse lessons Tabs too difficult? Try these video lessons and learn fast
 
                -------------------------------------------------------------------------------
                             THE CURSE - Josh Ritter
-------------------------------------------------------------------------------

Tuning: STANDARD

Main bass line:

G|-------------7-------------9-----------------------------------------------|
D|-------10---------7---7--------------10------------------------------------|
A|--8------------------------------------------------------------------------|
E|-------------------------------8-------------------------------------------|

Interludes:

G|-------------7---10---9----------------------------------------------------|
D|-------10------------------7-----------------------------------------------|
A|--8----------------------------------10------------------------------------|
E|-------------------------------8-------------------------------------------|

===============================================================================
            
Submit corrections


        The Curse lessons Hard to play? Try these video lessons and learn fast The Curse lessons
        
↑ Back to top | Tablatures and chords for acoustic guitar and electric guitar, ukulele, drums are parodies/interpretations of the original songs. You may use it for private study, scholarship, research or language learning purposes only