Home » J » Josh Pyke »

Josh Pyke - Kids Dont Sell Their Hopes So Fast Bass

Artists:  A B C D E F G H I J K L M N O P Q R S T U V W X Y Z # 

Kids Dont Sell Their Hopes So Fast Bass

(ver. 1) Click to play this song!
Josh Pyke
F
kids don't

D                                C

sell their hopes so fast….

G-----------------------------------|
D-----------2h3--3-3-3-2------ X 2--|
A--3---3-----------------5----------|
E-----------------------------------|

thicker…are the
G-----------------------------------|
D-----------2h3--3-3-3-2------ X 1--|
A--3---3-----------------5----------|
E-----------------------------------|

week days….
G-----------------------------------|
D-----------2h3--3-3-3-2------ X 1--|
A--0---0-----------------5----------|
E-----------------------------------|

these days seem flatter than these
G-----------------------------------|
D-----------2h3--3-3-3-2------ X 1--|
A--3---3-----------------5----------|
E-----------------------------------|

tryes
G-----------------------------------|
D-----------2h3--3-3-3-2------ X 1--|
A--0---0-----------------5----------|
E-----------------------------------|

summers on the

G-----------------------------------|
D-----------2h3--3-3-3-2------ X 1--|
A--3---3-----------------5----------|
E-----------------------------------|

outro

G-----------------------------------|
D-----------2h3--3-3-3-2------ X 1--|
A--0---0-----------------5----------|
E-----------------------------------|

C
mosquito coils and pine tree fires….

F                                   D

kids don't…sell their hopes so fast

C                                                A             F
cuz they're worth more than both of us……..

F                                        D
and even…if you don't get so far

C                                               A           F
at least we learned to drive that car……

oh no…saw her wash away and let it go…because…i said so……………….

A-0-------------2-3-5-----------3-2-0--------------|
E--------------------------------------------------|

A-2-3-5---------------7-8-0--------2-3----8----10--|
E-------------------------------------1/-----------|


leave it by the
G-----------------------------------|
D-----------2h3--3-3-3-2------ X 1--|
A--3---3-----------------5----------|
E-----------------------------------|

road side...
G-----------------------------------|
D-----------2h3--3-3-3-2------ X 1--|
A--0---0-----------------5----------|
E-----------------------------------|

i can't carry this all to..
G-----------------------------------|
D-----------2h3--3-3-3-2------ X 1--|
A--3---3-----------------5----------|
E-----------------------------------|

night….
G-----------------------------------|
D-----------2h3--3-3-3-2------ X 1--|
A--0---0-----------------5----------|
E-----------------------------------|


this is quite con
G-----------------------------------|
D-----------2h3--3-3-3-2------ X 1--|
A--3---3-----------------5----------|
E-----------------------------------|

cerning

G-----------------------------------|
D-----------2h3--3-3-3-2------ X 1--|
A--0---0-----------------5----------|
E-----------------------------------|

but theres other things on my...
G-----------------------------------|
D-----------2h3--3-3-3-2------ X 1--|
A--3---3-----------------5----------|
E-----------------------------------|

my…….mind
G---------------------------------------|
D---------------------------------  X 1-|
A--0---0----0h3-3-3--3-0-0-0------------|
E---------------------------------------|

F                             D

kids don't…sell their hopes so fast

C                                    A             F
cuz they're worth more than both of us……..


F                              D
and even…if you don't get so far
(fill)
D---------------------------|
A--5-5h7-7--5-5---0---------|
E--------------------8------|


at least we learned to drive that car……
D--------------------------3---3--3--3-3-3-2-5-----|
A-3---3---3-3-0-0-0--------------------------------|
E--------------------------------------------------|

at least we learned to drive that car……
D--------------------------3---3--3-3-3h5-5-5--------|
A-3---3---3-3-0-0-0-----------------------------3----|FINISHED!
E----------------------------------------------------|
            
Submit corrections

↑ Back to top | Tablatures and chords for acoustic guitar and electric guitar, ukulele, drums are parodies/interpretations of the original songs. You may use it for private study, scholarship, research or language learning purposes only