» » »

Josh Garrels - Fire By Night Tabs

Artists:  A B C D E F G H I J K L M N O P Q R S T U V W X Y Z # 

Fire By Night Tabs

(ver. 1) Click to play this song!
Josh Garrels
 Rating:
3.3/5 (28 votes)

 Fire By Night  lessons Tabs too difficult? Try these video lessons and learn fast
 
                
e|-----------------------------------------------------------------------------------|
B|------1-------1-------1---------------2-------2-------2----------------------------|
G|------2-------2-------2---------------2-------2-------2----------------------------|
D|------2-------2-------2---------------1-------1-------1----------------------------|
A|--0---------------0----------3---0----------------0------------3-------------------|
E|----------0---------------3---------------0----------------3-----------------------|

e|------------------------------------------------------------------------------------|
B|------2-------2------2--------------------------------------------------------------|
G|------2-------2------2--------------------------------------------------------------|
D|------1-------1------1--------------------------------------------------------------|
A|--0---------------0------------0-------2-------2-------2----------------------------|
E|----------0--------------0h2-------3-------3-------3--------------------------------|

e|-----------------------------------------------------------3---1p0-----------------|
B|--------------2------------------------------------3-----------------0-------------|
G|--------------2----------------------------------------0---------------------------|
D|--------------1----------0---------2-------0---------------------------------------|
A|------3---0-------0h2---------3----------------------------------------------------|
E|--2------------------------------------3-------3-----------------------------------|

e|--------------3---3---0---------------------------------------------------------|
B|------3-------3-----------------------------------------------------------------|
G|----------0---------------------------------------------------------------------|
D|--------------------------------------------------------------------------------|
A|--------------------------------------------------------------------------------|
E|--3-----------------------------------------------------------------------------|            
Submit corrections


        Fire By Night  lessons Hard to play? Try these video lessons and learn fast Fire By Night  lessons
        
↑ Back to top | Tablatures and chords for acoustic guitar and electric guitar, ukulele, drums are parodies/interpretations of the original songs. You may use it for private study, scholarship, research or language learning purposes only