Home » J » Josh Abbott Band »

Josh Abbott Band - Taste (easier Tab) Tabs

Artists:  A B C D E F G H I J K L M N O P Q R S T U V W X Y Z # 

Taste (easier Tab) Tabs

(ver. 1) Click to play this song!
Josh Abbott Band
-----------------------------------------------------------------
-----------------------------------------------------------------
-9--11--13----9--11--14--13-11-----9--11--13----9--11--14--13-11-
-----------------------------------------------------------------
-----------------------------------------------------------------
-----------------------------------------------------------------

-----------------------------------------------------------------
-16--14-13-14--16--14--13--14--------------------------------------
------------------------------13-13-13-13-13-14-13-11--11-11-11-9
-----------------------------------------------------------------
-----------------------------------------------------------------
-----------------------------------------------------------------

-----------------------------------------------------------------
-----------------------------------------------------------------
-11-11-12-11-----------------------------------------------------
-----------------------------------------------------------------
-----------------------------------------------------------------
-----------------------------------------------------------------

an easier way

---0--2---4-----0--2--5--4--2------0--2--4------0--2--5---4---2--
-----------------------------------------------------------------
-----------------------------------------------------------------
-----------------------------------------------------------------
-----------------------------------------------------------------
-----------------------------------------------------------------

---7---5---4--5--------7---5--4--5-------7--5--4--5--------------
-----------------------------------------------------------------
-----------------------------------------------------------------
-----------------------------------------------------------------
-----------------------------------------------------------------
-----------------------------------------------------------------

----4--4--4--4--5--5-4---2--2--2--2--3--3-2--0------------------------
-----------------------------------------------------------------
-----------------------------------------------------------------
-----------------------------------------------------------------
-----------------------------------------------------------------
-----------------------------------------------------------------taj


            
Submit corrections

↑ Back to top | Tablatures and chords for acoustic guitar and electric guitar, ukulele, drums are parodies/interpretations of the original songs. You may use it for private study, scholarship, research or language learning purposes only