Home » J » Josh Abbott Band »

Josh Abbott Band - She Will Be Free Tabs

Artists:  A B C D E F G H I J K L M N O P Q R S T U V W X Y Z # 

She Will Be Free Tabs

(ver. 1) Click to play this song!
Josh Abbott Band
e|------------------0------|-------------------------|------------------------|
B|--3------3----2-------2--|--0--------0-------------|------------------------|
G|------4------------------|--------------2----------|------0----------0------|
D|-------------------------|------0-----------0------|--5-------5--4-------4--|
A|-------------------------|-------------------------|------------------------|
D|--0--------0--0----------|--0------0----0-------0--|--0----------0----------|

e|--------------|----------------------------|
B|--------------|----------------------------|
G|------0-------|----------------------------|
D|--2--------2--|-----0-----0-----------0----|
A|--------------|-----------------0h-2-------|
D|--0------0----|--0-----0-----0----------0--|            
Submit corrections

↑ Back to top | Tablatures and chords for acoustic guitar and electric guitar, ukulele, drums are parodies/interpretations of the original songs. You may use it for private study, scholarship, research or language learning purposes only