Home » J » Josh Abbott Band »

Josh Abbott Band - All Of A Sudden Fiddle Part For Tabs

Artists:  A B C D E F G H I J K L M N O P Q R S T U V W X Y Z # 

All Of A Sudden Fiddle Part For Tabs

(ver. 1) Click to play this song!
Josh Abbott Band
(Guitar)
All of A sudden Fiddle part for guitar
Josh Abbott Band


Intro/After First Verse
--------------------------------------------------------
--------12-15--12----12-----------------15-13-12--------
--12-14-----------14----------12-14h16-----------14-12--
------------------------12-14---------------------------
--------------------------------------------------------
--------------------------------------------------------

                Solo
--------------|--------------------------14-15-14-------
--------------|-------12----12--------------------12----
--------------|-12-14----14----14-12-----------------14-
-14-----------|----------------------12-----------------
-----14-12-10-|-----------------------------------------
--------------|-----------------------------------------

----------------------------------------------|---------
-------------------12-------------------------|---------
-12-------------12----12----------------------|---------
----12--12--14-----------12-12-14-12----------|---------
-------------------------------------14-12-10-|---------
--------------------------------------------------------

Ending
--------------------------------------------------------
-------------------------------------12-----------------
---------------12----12--12-------12----12--------------
------------14----16--------12-14----------12--14-12-12-
--12-10-12----------------------------------------------
--------------------------------------------------------

--------------------------------------------------------
----------12------------------------------12----------12
-------12----14-12------------------12-14----14-12-14---
-14-16-------------12--14-12--14-16---------------------
--------------------------------------------------------
--------------------------------------------------------

--------------------------------------------------------
-15--15-13-15-------------12-15-13-12-------------------
--------------------12-14-------------14-12-------------
--------------12-14-------------------------14----------
-----------------------------------------------14-12-10-
--------------------------------------------------------

            
Submit corrections

↑ Back to top | Tablatures and chords for acoustic guitar and electric guitar, ukulele, drums are parodies/interpretations of the original songs. You may use it for private study, scholarship, research or language learning purposes only