Home » J » Josh Abbott Band »

Josh Abbott Band - All Of A Sudden Tabs

Artists:  A B C D E F G H I J K L M N O P Q R S T U V W X Y Z # 

All Of A Sudden Tabs

(ver. 1) Click to play this song!
Josh Abbott Band
All of a sudden      Please correct if you find errors
Josh Abbott Band
Guitar Solo
---------------------------------------------
---------------------------------------------
---------------------------------------------
--5-5-5-5-----------7-7-7-7------------------
--3-3-3-3--5-5-5-5--5-5-5-5--5-5-5-5---------
-----------3-3-3-3-----------3-3-3-3---------

---------------------------------------------
--3------------------------------------------
-----5-4-5-4-2-0--5-4--2h4p2--0--------------
---------------------------------------------
---------------------------------------------
---------------------------------------------

Special Chorus
---------------------------------------------
--1-1-1----0-0-0-0----3-3-3---0-0-0-0----1-1-
--0-0-0----0-0-0-0----2-2-2---0-0-0-0----0-0-
---------------------------------------------
---------------------------------------------
---------------------------------------------

---------------------------------------------
-1----0-0-0-0-----3-3-3-3-3------------------
-0----0-0-0-0-----2-2-2-2-2----------0-0-0---
------------------------------5-4-2--2-2-2---
---------------------------------------------
---------------------------------------------

---------------------------------------------
--0-0-0-0----3-3-3----0-0-0-0---1-1-1---0-0-0
--0-0-0-0----2-2-2----0-0-0-0---0-0-0---0-0-0
---------------------------------------------
---------------------------------------------
---------------------------------------------

---------------------------------------------
-0----3-3-3-3-3------------------------------
-0----2-2-2-2-2------------------------------
---------------------------------------------
---------------------------------------------
---------------------------------------------
            
Submit corrections

↑ Back to top | Tablatures and chords for acoustic guitar and electric guitar, ukulele, drums are parodies/interpretations of the original songs. You may use it for private study, scholarship, research or language learning purposes only