Home » J » Joni Mitchell »

Joni Mitchell - Big Yellow Taxi Tabs

Artists:  A B C D E F G H I J K L M N O P Q R S T U V W X Y Z # 

Big Yellow Taxi Tabs

(ver. 1) Click to play this song!
Joni Mitchell
Gtr I (D A D F# A D) - 'Joni Mitchell - Acoustic Guitar (Open D-Tuning w/ capo 2nd fret)'

 Intro
  Moderately fast Q=172
  A       A6              A6          B     B6      B         B6      E
 4/4
  Gtr I (Ac Gtr. (Open D-Tuning - DADF#AD) w/ capo 2nd fret)
  E E E E E E E E   E E E E E E E E   E E E E E E E E   E E E E E E E E
|-5-x-x-5-5-5-x-5-|---5-x-5-5-5-x-x-|-7-x-x-7-7-7-x-7-|-x-7-x-7-7-7-x-0--|
|-5-x-x-5-5-5-x-5-|---5-x-5-5-5-x-x-|-7-x-x-7-7-7-x-7-|-x-7-x-7-7-7-x-0--|
|-5-x-x-5-5-5-x-5-|---5-x-5-5-5-x-x-|-7-x-x-7-7-7-x-7-|-x-7-x-7-7-7-x-0--|
|-5-x-x-5-5-5-x-5-|---5-x-5-5-5-x-x-|-7-x-x-7-7-7-x-7-|-x-7-x-7-7-7-x-0--|
|-5-x-x-5-7-7-x-5-|---5-x-7-7-5-x-x-|-7-x-x-9-9-9-x-7-|-x-7-x-9-9-7-x-0--|
|-5-x-x-5-5-5-x-5-|---5-x-5-5-5-x-x-|-7-x-x-7-7-7-x-7-|-x-7-x-7-7-7-x-0--|


      A9  E7sus4E     A9  E   A9  E     A9  E7suA9  E         A9  E
  E E E E E E E E   E E E E E E E E   E E E E E E E E   E E E E E E E E
|-0-0-0-0-0-0-0-0-|-0-0-0-0-0-0-0-0-|-0-0-0-0-0-0-0-0-|-0-0-0-0-0-0-0-0--||
|-0-0-0-0-0-0-0-0-|-0-0-0-0-0-0-0-0-|-0-0-0-0-0-0-0-0-|-0-0-0-0-0-0-0-0--||
|-0-0-1-1-1-1-1-0-|-0-1-1-0-0-1-1-0-|-0-1-1-1-1-1-1-0-|-0-0-0-1-1-0-0-0--||
|-0-0-0-0-0-0-0-0-|-0-0-0-0-0-0-0-0-|-0-0-0-0-0-0-0-0-|-0-0-0-0-0-0-0-0--||
|-0-0-2-2-3-2-2-0-|-0-2-2-0-0-2-2-0-|-0-2-2-3-3-2-2-0-|-0-0-0-2-2-0-0-0--||
|-0-0-0-0-0-0-0-0-|-0-0-0-0-0-0-0-0-|-0-0-0-0-0-0-0-0-|-0-0-0-0-0-0-0-0--||


   1st - 4th Verses
    A       A6        A     A6              A9  E7A9s4E       A9E   A9
    E E E E E E E E   E E E E E E E E   E E E E E E E E   E E E E E E E E
||--5-x-x-5-5-5-x-x-|-5-x-x-5-5-5-x-0-|-0-0-0-0-0-0-0-0-|-0-0-0-0-0-0-0-0-|
||o-5-x-x-5-5-5-x-x-|-5-x-x-5-5-5-x-0-|-0-0-0-0-0-0-0-0-|-0-0-0-0-0-0-0-0-|
||--5-x-x-5-5-5-x-x-|-5-x-x-5-5-5-x-0-|-0-0-1-1-1-1-1-0-|-0-0-1-0-0-1-0-0-|
||--5-x-x-5-5-5-x-x-|-5-x-x-5-5-5-x-0-|-0-0-0-0-0-0-0-0-|-0-0-0-0-0-0-0-0-|
||o-5-x-x-5-7-7-x-x-|-5-x-x-7-7-7-x-0-|-0-0-2-2-3-2-2-0-|-0-0-2-0-0-2-0-0-|
||--5-x-x-5-5-5-x-x-|-5-x-x-5-5-5-x-0-|-0-0-0-0-0-0-0-0-|-0-0-0-0-0-0-0-0-|


  A     A6    E    B    B6  B   E       A9  E7A9s4E         A9  E
  E E E E E E Q    Q  E E E E E E   E E E E E E E E   E E E E E E E E
|-5-x-x-5-5-5-0--|-7--x-7-x-7-7-0-|-0-0-0-0-0-0-0-0-|-0-0-0-0-0-0-0-0--||
|-5-x-x-5-5-5-0--|-7--x-7-x-7-7-0-|-0-0-0-0-0-0-0-0-|-0-0-0-0-0-0-0-0--||
|-5-x-x-5-5-5-0--|-7--x-7-x-7-7-0-|-0-0-1-1-1-1-1-0-|-0-0-0-1-1-0-0-0--||
|-5-x-x-5-5-5-0--|-7--x-7-x-7-7-0-|-0-0-0-0-0-0-0-0-|-0-0-0-0-0-0-0-0--||
|-5-x-x-7-7-7-0--|-7--x-9-x-7-7-0-|-0-0-2-2-3-2-2-0-|-0-0-0-2-2-0-0-0--||
|-5-x-x-5-5-5-0--|-7--x-7-x-7-7-0-|-0-0-0-0-0-0-0-0-|-0-0-0-0-0-0-0-0--||


 Chorus
  E5           Emaj7                   A9            E
  Q  E E E E E E   +E  E E E E E E E   E E E E E E E E
|-0--0-0-0-0-0-0-|-(0)-0-0-0-0-0-0-0-|-0-x-x-0-0-0-0-0-|
|-0--0-0-0-0-0-0-|-(0)-0-0-0-0-0-0-0-|-0-x-x-0-0-0-0-0-|
|-3--3-3-3-3-3-3-|-(3)-3-3-3-3-3-3-3-|-1-x-x-1-1-1-1-0-|
|-0--0-0-0-0-0-0-|-(0)-0-0-0-0-0-0-0-|-0-x-x-0-0-0-2-0-|
|-5--5-5-5-5-5-4-|-(4)-4-4-4-4-4-4-4-|-2-x-x-2-2-2-0-0-|
|-0--0-0-0-0-0-0-|-(0)-0-0-0-0-0-0-0-|-0-x-x-0-0-0-0-0-|


                                                    1.,2.,3.
  B7sus4  E      A     A6    E     B     B6      E   E   A9  E7A9s4
  E E E E H      E E E E E E E E   E E E E E E E E   E E E E E E E E
|-0-0-0-0-0----|-5-x-x-5-5-5-0-0-|-7-x-x-7-7-7-x-0-|-0-0-0-0-0-0-0-0--|
|-0-0-0-0-0----|-5-x-x-5-5-5-0-0-|-7-x-x-7-7-7-x-0-|-0-0-0-0-0-0-0-0--|
|-1-1-1-1-0----|-5-x-x-5-5-5-0-0-|-7-x-x-7-7-7-x-0-|-0-0-1-1-1-1-1-1--|
|-2-2-2-2-0----|-5-x-x-5-5-5-0-0-|-7-x-x-7-7-7-x-0-|-0-0-0-0-0-0-0-0--|
|-0-0-0-0-0----|-5-x-x-7-7-7-0-0-|-7-x-x-9-9-9-x-0-|-0-0-2-2-3-2-2-2--|
|---------0----|-5-x-x-5-5-5-0-0-|-7-x-x-7-7-7-x-0-|-0-0-0-0-0-0-0-0--|


  E A9  E   A9  E     A9  E7suA9  E     A9  E   A9  E
  E E E E E E E E   E E E E E E E E   E E E E E E E E
|-0-0-0-0-0-0-0-0-|-0-0-0-0-0-0-0-0-|-0-0-0-0-0-0-0-0--||
|-0-0-0-0-0-0-0-0-|-0-0-0-0-0-0-0-0-|-0-0-0-0-0-0-0-0-o||
|-0-1-1-0-0-1-1-0-|-0-1-1-1-1-1-1-0-|-0-1-1-0-0-1-1-0--||
|-0-0-0-0-0-0-0-0-|-0-0-0-0-0-0-0-0-|-0-0-0-0-0-0-0-0--||
|-0-2-2-0-0-2-2-0-|-0-2-2-3-3-2-2-0-|-0-2-2-0-0-2-2-0-o||
|-0-0-0-0-0-0-0-0-|-0-0-0-0-0-0-0-0-|-0-0-0-0-0-0-0-0--||


                                      Out-Chorus
  4.
  E   A9  E7suA9    E A9      A9       E5           Emaj7
  E E E E E E E E   E E E E E E E E    Q  E E E E E E   +E  E E E E E E E
|-0-0-0-0-0-0-0-0-|-0-0-0-0-0-0-0-0-||-0--0-0-0-0-0-0-|-(0)-0-0-0-0-0-0-0--|
|-0-0-0-0-0-0-0-0-|-0-0-0-0-0-0-0-0-||-0--0-0-0-0-0-0-|-(0)-0-0-0-0-0-0-0--|
|-0-0-1-1-1-1-1-1-|-0-1-1-0-0-1-1-0-||-3--3-3-3-3-3-3-|-(3)-3-3-3-3-3-3-3--|
|-0-0-0-0-0-0-0-0-|-0-0-0-0-0-0-0-0-||-0--0-0-0-0-0-0-|-(0)-0-0-0-0-0-0-0--|
|-0-0-2-2-3-3-2-2-|-0-2-2-0-0-2-2-0-||-5--5-5-5-5-5-4-|-(4)-4-4-4-4-4-4-4--|
|-0-0-0-0-0-0-0-0-|-0-0-0-0-0-0-0-0-||-0--0-0-0-0-0-0-|-(0)-0-0-0-0-0-0-0--|


  A9            E   B7sus4  E      A     A6    E     B     B6      E
  E E E E E E E E   E E E E H      E E E E E E E E   E E E E E E E E
|-0-x-x-0-0-0-0-0-|-0-0-0-0-0----|-5-x-x-5-5-5-0-0-|-7-x-x-7-7-7-x-0--|
|-0-x-x-0-0-0-0-0-|-0-0-0-0-0----|-5-x-x-5-5-5-0-0-|-7-x-x-7-7-7-x-0--|
|-1-x-x-1-1-1-1-0-|-1-1-1-1-0----|-5-x-x-5-5-5-0-0-|-7-x-x-7-7-7-x-0--|
|-0-x-x-0-0-0-2-0-|-2-2-2-2-0----|-5-x-x-5-5-5-0-0-|-7-x-x-7-7-7-x-0--|
|-2-x-x-2-2-2-0-0-|-0-0-0-0-0----|-5-x-x-7-7-7-0-0-|-7-x-x-9-9-9-x-0--|
|-0-x-x-0-0-0-0-0-|---------0----|-5-x-x-5-5-5-0-0-|-7-x-x-7-7-7-x-0--|


      A9  E7A9s4    E A9  E   A9  E   A     A6  A E     B     B6      E
  E E E E E E E E   E E E E E E E E   E E E E E E E E   E E E E E E E E
|-0-0-0-0-0-0-0-0-|-0-0-0-0-0-0-0-0-|-5-x-x-5-5-5-0-0-|-7-x-x-7-7-7-x-0--|
|-0-0-0-0-0-0-0-0-|-0-0-0-0-0-0-0-0-|-5-x-x-5-5-5-0-0-|-7-x-x-7-7-7-x-0--|
|-0-0-1-1-1-1-1-1-|-0-1-1-0-0-1-1-0-|-5-x-x-5-5-5-0-0-|-7-x-x-7-7-7-x-0--|
|-0-0-0-0-0-0-0-0-|-0-0-0-0-0-0-0-0-|-5-x-x-5-5-5-0-0-|-7-x-x-7-7-7-x-0--|
|-0-0-2-2-3-2-2-2-|-0-2-2-0-0-2-2-0-|-5-x-x-7-7-5-0-0-|-7-x-x-9-9-9-x-0--|
|-0-0-0-0-0-0-0-0-|-0-0-0-0-0-0-0-0-|-5-x-x-5-5-5-0-0-|-7-x-x-7-7-7-x-0--|


      A9  E7A9s4      A9  E   A9  E   A     A6    E
  E E E E E E E E   E E E E E E E E   E E E E E E E E
|-0-0-0-0-0-0-0-0-|-0-0-0-0-0-0-0-0-|-5-x-x-5-5-5-0-0-|
|-0-0-0-0-0-0-0-0-|-0-0-0-0-0-0-0-0-|-5-x-x-5-5-5-0-0-|
|-0-0-1-1-1-1-1-1-|-0-1-1-0-0-1-1-0-|-5-x-x-5-5-5-0-0-|
|-0-0-0-0-0-0-0-0-|-0-0-0-0-0-0-0-0-|-5-x-x-5-5-5-0-0-|
|-0-0-2-2-3-2-2-2-|-0-2-2-0-0-2-2-0-|-5-x-x-7-7-7-0-0-|
|-0-0-0-0-0-0-0-0-|-0-0-0-0-0-0-0-0-|-5-x-x-5-5-5-0-0-|


  B     B6      E       A9  E7A9s4      A9    E
  E E E E E E E E   E E E E E E E E   E E E E H      +W
|-7-x-x-7-7-7-x-0-|-0-0-0-0-0-0-0-0-|-0-0-0-0-0----|-(0)----*|
|-7-x-x-7-7-7-x-0-|-0-0-0-0-0-0-0-0-|-0-0-0-0-0----|-(0)----*|
|-7-x-x-7-7-7-x-0-|-0-0-1-1-1-1-1-0-|-0-1-1-1-0----|-(0)----*|
|-7-x-x-7-7-7-x-0-|-0-0-0-0-0-0-0-0-|-0-0-0-0-0----|-(0)----*|
|-7-x-x-9-9-9-x-0-|-0-0-2-2-3-2-2-0-|-0-2-2-2-0----|-(0)----*|
|-7-x-x-7-7-7-x-0-|-0-0-0-0-0-0-0-0-|-0-0-0-0-0----|-(0)----*|

            
Submit corrections

↑ Back to top | Tablatures and chords for acoustic guitar and electric guitar, ukulele, drums are parodies/interpretations of the original songs. You may use it for private study, scholarship, research or language learning purposes only