Home » J » Jones Tom »

Jones Tom - You Can Leave Your Hat On Bass

Artists:  A B C D E F G H I J K L M N O P Q R S T U V W X Y Z # 

You Can Leave Your Hat On Bass

(ver. 1) Click to play this song!
Jones Tom
BASS LINE FOR YOU CAN LEAVE YOUR HAT ON
                        as recorded by TOM JONES

  INTRO

  G------------------------------------
  D--------1---1------------1---1------
  A---1--3---3---3-----1--3---3---3----
  E------------------------------------

  G------------------------------------
  D--------1---1-----------------------
  A---1--3---3---3-----1--3-----1------
  E--------------------------3---------

  VERSE/MAIN RIFF              BRIDGE

  G-------------------------  G--------------------------------------
  D----2--1--2--------------  D------------2222222---33333333-----55-
  A--3--------------0---3---  A---33333333---------3-----------------
  E-------------3-----------  E--------------------------------------

  CHORUS

  G-------------------------------------------------------------
  D------2--1--2-----------------2--1--2------------------------
  A--3--------------0--3-----3---------------0----1-1111--------
  E--------------3------------------------3---------------1-----

  SONG STRUCTURE
  INTRO      X1
  MAIN RIFF  X16
  BRIDGE     X1
  CHORUS     X2
  MAIN RIFF  X14
  BRIDGE     X1
  CHORUS     X2
  MAIN RIFF  X10
  INTRO      X1  
  CHROUS     X4
  ADLIB TO END
            
Submit corrections

↑ Back to top | Tablatures and chords for acoustic guitar and electric guitar, ukulele, drums are parodies/interpretations of the original songs. You may use it for private study, scholarship, research or language learning purposes only