» » »

Jones Norah - Dont Know Why Bass

Artists:  A B C D E F G H I J K L M N O P Q R S T U V W X Y Z # 

Dont Know Why Bass

(ver. 1) Click to play this song!
Jones Norah
 Rating:
4/5 (4 votes)

 Dont Know Why lessons Tabs too difficult? Try these video lessons and learn fast
 
                \: slide down
/: slide up


Have fun!

Intro:
G:|---------------------------|
D:|-------1-10-05-5---3-33-3\-|
A:|-1-11-1---------3-3--------|
E:|---------------------------|

Verse:
G:|------------------------------------------------------------|
D:|------1-1003-5---3-3---------1-1003-5-5---3-3----5-5---3-3--|
A:|-1-1-1--------3-3---1-131-1-1----------3-3---1-1----3-3---1-|
E:|------------------------------------------------------------|

G:|-----------------------------------------------|
D:|------1-1003-5----3-3---------1-1003-5----3-3--|
A:|-1-1-1---------3-3---1-131-1-1---------3-3---1-|
E:|-----------------------------------------------|

Chorus:
G:|-------------------------------------|
D:|-5-0-----3-3-3-3-3/5-0-----3-1-0-----|
A:|-----3-3---------------3-3-------3---|
E:|-------------------------------------|

Verse 2:
G:|-----------------------------------------------|
D:|------1-1003-5----3-3---------1-1003-5----3-3--|
A:|-1-1-1---------3-3---1-131-1-1---------3-3---1-|
E:|-----------------------------------------------|

Chorus:
G:|-------------------------------------|
D:|-5-0-----3-3-3-3-3/5-0-----3-1-0-----|
A:|-----3-3---------------3-3-------3---|
E:|-------------------------------------|

Bridge:
G:|----------------------------|
D:|------1-1003-5-5---3-33-3\--|
A:|-1-1-1----------3-3-------1-|
E:|----------------------------|

Verse 3:
G:|-----------------------------------------------------------------------|
D:|------1-10-05-5---3-3--3\-----1-10-05-5---3-3---5-5---3-3---5-5---3-3--|
A:|-1-1-1---------3-3---1---1-1-1---------3-3---1-1---3-3---1-1---3-3---1-|
E:|-----------------------------------------------------------------------|
            
Submit corrections


        Dont Know Why lessons Hard to play? Try these video lessons and learn fast Dont Know Why lessons
        
↑ Back to top | Tablatures and chords for acoustic guitar and electric guitar, ukulele, drums are parodies/interpretations of the original songs. You may use it for private study, scholarship, research or language learning purposes only