» » »

John Scofield - Deadzy Tabs

Artists:  A B C D E F G H I J K L M N O P Q R S T U V W X Y Z # 

Deadzy Tabs

(ver. 1) Click to play this song!
John Scofield
 Rating:
4.3/5 (24 votes)

 Deadzy lessons Tabs too difficult? Try these video lessons and learn fast
 
                e|------------------------------------|-------------------------------------|
B|------------------------------------|----------7---9-11-7-9-11-7-10-10----|
G|-----9-----7--------7-9-10-----8----|-7---8-10-------------------------10-|
D|-------------10---------------------|-------------------------------------|
A|---------------------------------10-|-------------------------------------|
E|------------------------------------|-------------------------------------|

e|------------------------------------|-------------------------------------|
B|-10---------------------------------|-------------------------------------|
G|------------------------------------|-8-----------------------------------|
D|------------------------------------|-------------------------------------|
A|------------------------------------|-------------------------------------|
E|------------------------------------|-------------------------------------|

e|-------------------------------------|-------------------------------------|
B|-------------------------------------|----------7---9-11-7-9-11-7-10-10-10-|
G|-----9-----7--------7-9-9pb10r9-8----|-7---8-10----------------------------|
D|-------------10----------------------|-------------------------------------|
A|----------------------------------10-|-------------------------------------|
E|-------------------------------------|-------------------------------------|

e|------------------------------------|-------------------------------------|
B|----10------------------------------|-------------------------------------|
G|-10---------------------------------|-8-----------------------------------|
D|------------------------------------|-------------------------------------|
A|------------------------------------|-------------------------------------|
E|------------------------------------|-------------------------------------|

e|------------------------------------|-------------------------------------|
B|-----11-10p8\7-------7-8-10/14------|-------------------------------------|
G|------------------------------------|-------------------------------------|
D|------------------------------------|-------------------------------------|
A|------------------------------------|-------------------------------------|
E|------------------------------------|-------------------------------------|

e|------------------------------------|
B|------------------------------------|
G|------------------------------------|
D|------------------------------------|
A|------------------------------------|
E|------------------------------------|

e|-------------------------------------|---------------------------------------|
B|-------------------------------------|----------7---9-11p7-9-11-7-9/10-10----|
G|-----9-----7--------7-9-9pb10r9-8----|-7---8-10---------------------------10-|
D|-------------10----------------------|---------------------------------------|
A|----------------------------------10-|---------------------------------------|
E|-------------------------------------|---------------------------------------|

e|------------------------------------|-------------------------------------|
B|-10---------------------------------|-------------------------------------|
G|------------------------------------|-8-----------------------------------|
D|------------------------------------|-------------------------------------|
A|------------------------------------|-------------------------------------|
E|------------------------------------|-------------------------------------|

e|-----------11-------------------11-------|-----------11------------------11-----|
B|-----10---------10--------10-------------|-----10---------10--------10----------|
G|-----------------------------------------|--------------------------------------|
D|---8----------8---------8----------------|---8----------8---------8-------------|
A|--------10---------10--------10----------|--------10-------------------x--------|
E|-8--------------------8----------------0-|-8-----------------10-8-------------1/|

e|-----------11-------------------11-------|
B|-----10---------10--------10-------------|
G|-----------------------------------------|
D|---8----------8---------8----------------|
A|--------10---------10--------10----------|
E|-8--------------------8------------------|

e|-------------------------------------|---------------------------------------|
B|-------------------------------------|----------7---9-11p7-9-11-(7)-10-10----|
G|---7/9-----7--------7-9-9pb10r9-8----|-7---8-10---------------------------10-|
D|-------------10----------------------|---------------------------------------|
A|----------------------------------10-|---------------------------------------|
E|-------------------------------------|---------------------------------------|

e|-------------------------------------|---------------------------------------|
B|-10----------------------------------|---------------------------------------|
G|-------------------------------------|---------------------------------------|
D|-------------------------------------|---------------------------------------|
A|-------------------------------------|---------------------------------------|
E|-------------------------------------|---------------------------------------|

e|---------------11-------------------11-------|-----------11-------------------11-------|
B|-------10-----------10--------10-------------|-----10---------10--------10-------------|
G|---------------------------------------------|-----------------------------------------|
D|-----8------------8---------8----------------|---8----------8---------8----------------|
A|----------(10)---------10--------10----------|--------10---------10--------10----------|
E|-(8)----------------------8------------------|-8--------------------8------------------|

e|----------11-------------------11-------|-----------11-------------------11-------|
B|-----x---------10--------10-------------|-----10---------10--------10-------------|
G|----------------------------------------|-----------------------------------------|
D|---x---------8---------8----------------|---8----------8---------8----------------|
A|-------10---------10--------10----------|--------10---------10--------10----------|
E|-8-------------------8------------------|-x--------------------8------------------|

e|-------------11-------------------11-------|-----------11---------------------11-------|
B|-------10---------10--------10-------------|-----10---------10----------10-------------|
G|-------------------------------------------|-------------------------------------------|
D|-----8----------8---------8----------------|---8----------8---------(8)----------------|
A|----------10---------10--------10----------|--------10---------10----------10----------|
E|-(8)--------------------8----------------x-|-8--------------------8--------------------|


e|-------------11------------------11-------|------------11-----------------------(11)-------|
B|-------10---------10--------10------------|-------10----------10-----------10--------------|
G|------------------------------------------|------------------------------------------------|
D|-----8----------8---------8---------------|-----8---------(8)----------(8)-----------------|
A|----------10---------10--------x----------|----------x-----------x------------x------------|
E|-(8)--------------------8-----------------|-(8)--------------------(8)---------------------|

e|-----------11-------------------11-------|-----------11-------------------11-------|
B|-----10---------10--------10-------------|-----10---------10--------10-------------|
G|-----------------------------------------|-----------------------------------------|
D|---8----------8---------8----------------|---8----------8---------8----------------|
A|--------10---------10--------10----------|--------10---------10--------10----------|
E|-8--------------------8------------------|-8--------------------8------------------|            
Submit corrections


        Deadzy lessons Hard to play? Try these video lessons and learn fast Deadzy lessons
        
↑ Back to top | Tablatures and chords for acoustic guitar and electric guitar, ukulele, drums are parodies/interpretations of the original songs. You may use it for private study, scholarship, research or language learning purposes only