» » »

John Petrucci - Glasgow Kiss Tabs

Artists:  A B C D E F G H I J K L M N O P Q R S T U V W X Y Z # 

Glasgow Kiss Tabs

(ver. 1) Click to play this song!
John Petrucci
 Rating:
4.2/5 (30 votes)

 Glasgow Kiss lessons Tabs too difficult? Try these video lessons and learn fast
 
                [Intro] 12/8 time.

   E5
Guitars 3 & 4
e|---------------------------------------------------------------------------|
B|-----------7--------10--7--9--7-----------------7--------------------------|
G|--------9-----9------------------9-----------9-----9-----7--6-----------6--|
D|-----9-----------9------------------9-----9-----------9--------9--7--9-----|
A|--7------------------------------------7-----------------------------------|
E|---------------------------------------------------------------------------|
 | Guitars 1 & 2
e|---------------------------------------------------------------------------|
B|---------------------------------------------------------------------------|
G|--9------(9)\--------------------------------------------------------------|
D|--9------(9)\--------------------------------------------------------------|
A|--7------(7)\--------------------------------------------------------------|
E|---------------------------------------------------------------------------|


   E5                                                         F#5     E5    D5  

e|---------------------------------------10--7--9--10p9p7--------------------------|
B|-----------7--------10--7--9--7--------------------------10--7--10-----10-----10-|
G|--------------9------------------9----------------------------------9------7-----|
D|--9-----9--------9------------------9--------------------------------------------|
A|-----7---------------------------------------------------------------------------|
E|---------------------------------------------------------------------------------|
 |
e|---------------------------------------------------------------------------------|
B|---------------------------------------------------------------------------------|
G|--9------(9)\-----------------------------------------------/11-----9------7-----|
D|--9------(9)\--------------------------------------------------------------------|
A|--7------(7)\-----------------------------------------------/9------7------5-----|
E|---------------------------------------------------------------------------------|


   E5

e|---------------------------------------------------------------------------|
B|-----------7--------10--7--9--7-----------------7--------------------------|
G|--------9-----9------------------9-----------9-----9-----7--6-----------6--|
D|-----9-----------9------------------9-----9-----------9--------9--7--9-----|
A|--7------------------------------------7-----------------------------------|
E|---------------------------------------------------------------------------|
 |
e|---------------------------------------------------------------------------|
B|--5------------------------------------------------------------------------|
G|--4------------------------------------------------------------------------|
D|--2---------------------------------------------------------------------x/-|
A|--2---------------------------------------------------------------------x/-|
E|--0------------------------------------------------------------------------|


   E5                                   G5                A5

e|--------------------------------------------------------7--10--7--12p9------|
B|-----------7--------10--7--9--7----------------------8------------------10--|
G|--------------9------------------9--------------4/7-------------------------|
D|--9-----9--------9------------------9--------7------------------------------|
A|-----7------------------------------------5---------------------------------|
E|---------------------------------------3------------------------------------|
 |
e|---------------------------------------3------------------------------------|
B|---------------------------------------3------------------------------------|
G|--9------------------------------------0----------------2-------------------|
D|--9------------------------------------0----------------2-------------------|
A|--7-----------------------------------------------------0-------------------|
E|---------------------------------------3------------------------------------|


   E5                                                 

e|--------------14----------17--14--16--14----------------------14----------------------------------|
B|----------17------17----------------------17--------------17------17------15--14--------------14--|
G|------16--------------16----------------------16------16--------------16----------16--14--16------|
D|--14----------------------------------------------14----------------------------------------------|
A|--------------------------------------------------------------------------------------------------|
E|--------------------------------------------------------------------------------------------------|
 |
e|--------------------------------------------------------------------------------------------------|
B|--------------------------5-----------------------------------------------------------------------|
G|--------------------------4-----------------------------------------------2-----------------------|
D|--2-----------------------2-----------------------------------------------2-----------------------|
A|--2-----------------------------------------------------------------------0-----------------------|
E|--0-----------------------------------------------------------------------------------------------|


    E5                                             G5                         D5                        

e|--------------14----------17--14--16--14----------22--19--21--22p21p19-----------------------------|
B|------------------17----------------------17----------------------------22--19--22------22------22-|
G|--16------16----------16----------------------16------------------------------------21------19-----|
D|------14-------------------------------------------------------------------------------------------|
A|---------------------------------------------------------------------------------------------------|
E|---------------------------------------------------------------------------------------------------|
 |
e|--------------------------------------------------3------------------------------------------------|
B|--------------------------5-----------------------3-------------------------3----------------------|
G|--------------------------4-----------------------0-------------------------2----------------------|
D|--2-----------------------2-----------------------0-------------------------0----------------------|
A|--2-------------------------------------------------------------------------0----------------------|
E|--0-----------------------------------------------3------------------------------------------------|


   E5

e|--------------14----------17--14--16--14----------------------14----------------------------------|
B|----------17------17----------------------17--------------17------17------15--14--------------14--|
G|------16--------------16----------------------16------16--------------16----------16--14--16------|
D|--14----------------------------------------------14----------------------------------------------|
A|--------------------------------------------------------------------------------------------------|
E|--------------------------------------------------------------------------------------------------|
 |
e|--------------------------------------------------------------------------------------------------|
B|--------------------------5-----------------------------------------------------------------------|
G|--------------------------4-----------------------------------------------2-----------------------|
D|--2-----------------------2-----------------------------------------------2-----------------------|
A|--2-----------------------------------------------------------------------0-----------------------|
E|--0-----------------------------------------------------------------------------------------------|



e|--------------14----------17--14--16--14---------------------------------19--22--19--24p21------|
B|----------17------17----------------------17-------------------------20---------------------22--|
G|------16--------------16----------------------16--------------16/19-----------------------------| Guitars 1
D|--14------------------------------------------------------19------------------------------------| & 2 out
A|------------------------------------------------------17----------------------------------------|
E|--------------------------------------------------15--------------------------------------------|
 |
e|--------------------------------------------------3---------------------------------------------|
B|--------------------------5-----------------------3---------------------------------------------|
G|--------------------------4-----------------------0----------------------2----------------------|
D|--2-----------------------2-----------------------0----------------------2----------------------|
A|--2----------------------------------------------------------------------0----------------------|
E|--0-----------------------------------------------3---------------------------------------------|


[Verse]
Guitar 6:
   E5                                                           Bm
    |    |  |  |  |  |  |  |  | |  |  |   |  | |  |  |   | | |   |  |  |  |  |  |   |  |   |   | | | |  | | 
    /    /  /  /  /  /  /  /  / /  /  /   /  / /  /  /   / / /   /  /  /  /  /  /   /  /   /   / / / /  / /

Guitar 5              ~~~~~~~~~~~~~~~~~~~~                                    ~~~~~~~~~~~~~~~~~~~~~~~
e|---------------------------------------------------------------------------------------------------------|
B|---------------------------------------------------------------------------------------------------------|
G|--13---14----16--14/16-------------------13--14--16---14---13\9/11----\7----7-----------------------(7)\-|
D|---------------------------------------------------------------------------------------------------------|
A|---------------------------------------------------------------------------------------------------------|
E|---------------------------------------------------------------------------------------------------------|
 | Guitars 3 & 4
e|---------------------------------------------------------------------------------------------------------|
B|---------------------------------------------------------------------------------------------------------|
G|---------------------------------------------------------------------------------------------------------|
D|--9----------------------------------------------9--------------4--------------------------------4-------|
A|--7----------------------------------------------7--------------2--------------------------------2-------|
E|---------------------------------------------------------------------------------------------------------|


   D                                                                        E
   |    |  |  |  |   |  |   |  |  |  | | |   | || |  |  |   | | | |  |   |  | | |   |||  | | | |  | |  |  
   /    /  /  /  /   /  /   /  /  /  / / /   / // /  /  /   / / / /  /   /  / / /   ///  / / / /  / /  /
         
                          1/2 hold bend~~~~~~-|                             ~~~~~~~~~~~~~~~~~~~~~~~~~~~~~~
e|--------------------------------------------------------------------------------------------------------|
B|--------------------------------------------------------------------------------------------------------|
G|--------11---13----14--13^-------------------(13)--11--13--14---13---11\7/9-----------------------------|
D|--4/7/--------------------------------------------------------------------------------------------------|
A|--------------------------------------------------------------------------------------------------------|
E|--------------------------------------------------------------------------------------------------------|
 |                                                                                 PM---|
e|--------------------------------------------------------------------------------------------------------|
B|--------------------------------------------------------------------------------------------------------|
G|--------------------------------------------------------------------------------------------------------|
D|-(4)----7--------------------------------------------------7--------------------------------------------|
A|-(2)----5--------------------------------------------------5-----------/9----7----------5p0--4p0--------|
E|--------------------------------------------------------------------------0-------0--0------------7--5--|


   E                                E5 
   |  |   |  | |  |  |||  | |||||   |  |  |  |   | | | |  |  | | | || |   |  | |  | | ||   |  |    |
   /  /   /  / /  /  ///  / /////   /  /  /  /   / / / /  /  / / / // /   /  / /  / / //   /  /    /

     ~~~~~~~~~~~~~~~~~~~~~~~~                          ~~~~~~~~~~~~~~~~~~~~~
e|----------------------------------------------------------------------------------------------------|
B|----------------------------------------------------------------------------------14--15--14h15p14--|
G|--(9)---------------------(9)\----13---14----16--14/16--------------------\11/16--------------------|
D|----------------------------------------------------------------------------------------------------|
A|----------------------------------------------------------------------------------------------------|
E|----------------------------------------------------------------------------------------------------|
 |
e|----------------------------------------------------------------------------------------------------|
B|----------------------------------------------------------------------------------------------------|
G|----------------------------------------------------------------------------------------------------|
D|----------4--6--7--6--4--------4--9---------------------------------------------------9-------------|
A|-----7-------------------5--7-----7---------------------------------------------------7-------------|
E|--0-------------------------------------------------------------------------------------------------|


   E5      Bm                                                  F#m
   |  | |  |  | ||||  | | |  | |    |  | |    |  |  |  | | |  | | |    | |  | |  |  | | | |  |  |  |
   /  / /  /  / ////  / / /  / /    /  / /    /  /  /  / / /  / / /    / /  / /  /  / / / /  /  /  /

                              ~~~~~~~~~~~~~~~~~~~~~~~~                            1 hold bend------|
e|--------------------------------------------------------------------------------------------------|
B|--------------------------------------------------------------10----12----14--12^-----------------|
G|--16--14--16--(16)\--11----11----------------------(11)\6/11--------------------------------------|
D|--------------------------------------------------------------------------------------------------|
A|--------------------------------------------------------------------------------------------------|
E|--------------------------------------------------------------------------------------------------|
 |
e|------------------------------------------------------------------------------2-------------------|
B|--------------------------------------------------------------------------------------------------|
G|--------------------------------------------------------------------------------------------------|
D|-(9)------4----------------------------------4----------------4-----------------------------------|
A|-(7)------2----------------------------------2----------------4-----------------------------------|
E|--------------------------------------------------------------2-----------------------------------|


   F#m                                             G5
    |  |  |  |  | | | ||  | |  |   | | | |  | | |   | | ||||   ||  |||||   || | | |  |  |    | |
    /  /  /  /  / / / //  / /  /   / / / /  / / /   / / ////   //  /////   // / / /  /  /    / /

  hold bend~~~~~~~~~|                                                ~~~~~~~~~~~~~~~~~~~~~~
e|---------------------------------------------------------------------------------------------------|
B|--(12^)------------(12)--10--12--14---12---10--/12------------\8---8---------------------(8)\------|
G|----------------------------------------------------------------------------------------------/11--|
D|---------------------------------------------------------------------------------------------------|
A|---------------------------------------------------------------------------------------------------|
E|---------------------------------------------------------------------------------------------------|
 |
e|-------------------------------------------------------------------3-------------------------------|
B|-------2------------------------------------------------------------------------3------------------|
G|------------------------------------------------0--------------------------------------------0-----|
D|---------------------------------4--------------0--------------------------------------------------|
A|---------------------------------------------------------------------------------------------------|
E|------------------------------------------------3--------------------------------------------------|


   Bm                                                A/C#                    D II
   |  |  | | | |  |  |  | ||  |  |  | ||   |  |  |  | | | | | | |  | |   |  | | | | |  | | | ||  | |
   /  /  / / / /  /  /  / //  /  /  / //   /  /  /  / / / / / / /  / /   /  / / / / /  / / / //  / /

                    1/2         ~~~~~~~~~                                        1 hold bend---------|
e|----------------------------------------------------------------------------------------------------|
B|--12---14----15--14^--------------------(14)\--------15------17------19------17^----------17--17----|
G|-----------------------------------------------7/14------14------14------14-------------------------|
D|----------------------------------------------------------------------------------------------------|
A|----------------------------------------------------------------------------------------------------|
E|----------------------------------------------------------------------------------------------------|
 |
e|----------------------------------------------------------------------------------------------------|
B|----------------------------------------------------------------------------------------------------|
G|----------------------------------------------------------------------------------------------------|
D|--4--------------------------------------------------7-----------------------7----------------------|
A|--2--------------------------------------------------4-----------------------5----------------------|
E|----------------------------------------------------------------------------------------------------|


  D II                                  E II                      F#m II
   |  |  |  |  | | | | |  ||  | | || || | |  |||  | |  |    |  | | |  | ||  |  | | | | | 
   /  /  /  /  / / / / /  //  / / // // / /  ///  / /  /    /  / / /  / //  /  / / / / /

   hold bend~~~~~~~~~~~~~~~|                                       1/2 hold bend---------|
e|----------------------------------------------------------------------------------------|
B|--(17)--------------------(17)\---------17------19------21------21^------------21--21---|
G|---------------------------------11/16------16------16------16--------------------------|
D|----------------------------------------------------------------------------------------|
A|----------------------------------------------------------------------------------------|
E|----------------------------------------------------------------------------------------|
 |
e|----------------------------------------------------------------------------------------|
B|----------------------------------------------------------------------------------------|
G|----------------------------------------------------------------------------------------|
D|--(7)-----------------------------------9--------------------------11-------------------|
A|--(5)-----------------------------------7--------------------------9--------------------|
E|----------------------------------------------------------------------------------------|


  F#m II                                E II                B
   |  | | |  |  | |||   | | |  |  |  |  | |  | |  | |  | |  || | |  | |  |   |  |   | | |  | |  |
   /  / / /  /  / ///   / / /  /  /  /  / /  / /  / /  / /  // / /  / /  /   /  /   / / /  / /  /

  hold bend---~~~~~~~~~~~~~|                                ~~~~~        ~~~~~~~~~~~~~~~~~~~~~~~~
e|----------------------------------------------------------------19----19------------------------|
B|--(21)--------------------(21)--19--21--22---21---19\17--19-------------------------------------|
G|------------------------------------------------------------------------------------------------|
D|------------------------------------------------------------------------------------------------|
A|------------------------------------------------------------------------------------------------|
E|------------------------------------------------------------------------------------------------|
 |
e|------------------------------------------------------------------------------------------------|
B|------------------------------------------------------------------------------------------------|
G|------------------------------------------------------------------------------------------------|
D|--(11)----------------------------------9----------------4----------------------------------4---|
A|--(9)-----------------------------------7----------------2----------------------------------2---|
E|------------------------------------------------------------------------------------------------|


   B
   | | | |  | ||  | | |  | | |  | | |
   / / / /  / //  / / /  / / /  / / /

      ~~~~~~~~~~~~~~~~~~~~~~~~~~~~~~~
e|--(19)-------------------------------|
B|-------------------------------------|
G|-------------------------------------|
D|-------------------------------------|
A|-------------------------------------|
E|-------------------------------------|
 |
e|-------------------------------------|
B|-------------------------------------|
G|-------------------------------------|
D|--4----------------------------------|
A|--2----------------------------------|
E|-------------------------------------|


   E                                                     Asus2
   |                                                      |
   /                                                      /

      ~~~~~~~~~~~~~~~~~~~~~~~~~~~~~~~~~~
e|--(19)---------------------------------------------------------------------|
B|---------------------------------------------------------------------------|
G|---------------------------------------------------------------------------|
D|---------------------------------------------------------------------------|  Guitar 5 out
A|---------------------------------------------------------------------------|
E|---------------------------------------------------------------------------|
 | Guitars 1 & 2
e|---------------------------------------------------------------------------|
B|-----------7--------10--7--9--7-----------------7--------------------------|
G|--------9-----9------------------9-----------9-----9-----7--6-----------6--|
D|-----9-----------9------------------9-----9-----------9--------9--7--9-----|
A|--7------------------------------------7-----------------------------------|
E|---------------------------------------------------------------------------|
 | Guitars 3 & 4
e|---------------------------------------------------------------------------|
B|---------------------5-----------------------------------------------------|
G|---------------------4-----------------------------------2-----------------|
D|--2------------------2-----------------------------------2-----------------|
A|--2------------------------------------------------------0-----------------|
E|--0------------------------------------------------------------------------|


  E                                      G5                    D5
  |                                      |                     |
  /                                      /                     /  

e|---------------------------------------10--7--9--10p9p7--------------------------|
B|-----------7--------10--7--9--7--------------------------10--7--10-----10-----10-|
G|--------------9------------------9----------------------------------9------7-----|
D|--9-----9--------9------------------9--------------------------------------------|
A|-----7---------------------------------------------------------------------------|
E|---------------------------------------------------------------------------------|
 |
e|---------------------------------------3-----------------------------------------|
B|---------------------5-----------------3---------------------3-------------------|
G|---------------------4-----------------0---------------------2-------------------|
D|--2------------------2-----------------0---------------------0-------------------|
A|--2----------------------------------------------------------0-------------------|
E|--0------------------------------------3-----------------------------------------|


    E                                                     Asus2
    |                                                      |
    /                                                      /

e|---------------------------------------------------------------------------|
B|-----------7--------10--7--9--7-----------------7--------------------------|
G|--------9-----9------------------9-----------9-----9-----7--6-----------6--|
D|-----9-----------9------------------9-----9-----------9--------9--7--9-----|
A|--7------------------------------------7-----------------------------------|
E|---------------------------------------------------------------------------|
 |
e|---------------------------------------------------------------------------|
B|---------------------5-----------------------------------------------------|
G|---------------------4-----------------------------------2-----------------|
D|--2------------------2-----------------------------------2-----------------|
A|--2------------------------------------------------------0-----------------|
E|--0------------------------------------------------------------------------|

   E                                    G5               D
   |                                     |               |
   /                                     /               /   

e|--------------------------------------------------------7--10--7--12p9------|
B|-----------7--------10--7--9--7----------------------8------------------10--|
G|--------------9------------------9--------------4/7-------------------------|
D|--9-----9--------9------------------9--------7------------------------------| Guitars 3 & 4 out
A|-----7------------------------------------5---------------------------------|
E|---------------------------------------3------------------------------------|
 |
e|---------------------------------------3------------------------------------|
B|---------------------5-----------------3----------------3-------------------|
G|---------------------4-----------------0----------------2-------------------|
D|--2------------------2-----------------0----------------0-------------------|
A|--2-----------------------------------------------------0-------------------|
E|--0------------------------------------3------------------------------------|


[Verse 2]

   E5                                                                     Bm
Guitar 6: Plays chords listed, in simile strumming pattern as previous verse.
Guitar 5                ~~~~~~~~~~~~~~~~~~~~~~~                                           ~~~~
e|--/16---17----19--17h19------------------------16--17--19---17------------------------------|
B|-----------------------------------------------------------------17--17/19--(19)\15----15---|
G|--------------------------------------------------------------------------------------------|
D|--------------------------------------------------------------------------------------------|
A|--------------------------------------------------------------------------------------------|
E|--------------------------------------------------------------------------------------------|
 | Guitars 1 & 2
e|--------------------------------------------------------------------------------------------|
B|--------------------------------------------------------------------------------------------|
G|--------------------------------------------------------------------------------------------|
D|---9-------------------------------------9-------------------------------4------------------|
A|---7-------------------------------------7-------------------------------2------------------|
E|--------------------------------------------------------------------------------------------|



   Bm                    D                                                                  E
  ~~~~~~~~~~~~~~~                        1/2       ~~~~~~                                    ~~~~~
e|-----------------------14---16----17--16^---------------(16)---14--16--17p0--16p0--14------------|
B|--(15)---------\10/15------------------------------------------------------------------15/17-----|
G|-------------------------------------------------------------------------------------------------|
D|-------------------------------------------------------------------------------------------------|
A|-------------------------------------------------------------------------------------------------|
E|-------------------------------------------------------------------------------------------------|
 |
e|-------------------------------------------------------------------------------------------------|
B|-------------------------------------------------------------------------------------------------|
G|-------------------------------------------------------------------------------------------------|
D|-----------------4-----7----------------------------7-------------------------------------9------|
A|-----------------2-----5----------------------------5-------------------------------------7------|
E|-------------------------------------------------------------------------------------------------|


   E

e|--------------19------17----16--------------16--------------19p16-------|
B|------17------------------------19--17--19------17------17---------17---|
G|--16------16------16--------------------------------16------------------|
D|------------------------------------------------------------------------|
A|------------------------------------------------------------------------|
E|------------------------------------------------------------------------|
 |      ~~~~ PM--|                         ~~~~
e|------------------------------------------------------------------------|
B|------------------------------------------------------------------------|
G|------------------------------------------------------------------------|
D|----------------------------------------------4--6--7--6--4--------4----|
A|------7-----------5p0--4p0---------------7-------------------5----------|
E|--0---------0--0-------------7---5----0---------------------------------|


   E5                                                               Bm
                       ~~~~~~~~~~~~~~~~~~~~                                         ~~~~~~~~~
e|--16---17----19--17h19--------------------19--21--22---21---19\17--19--(19)\14---14---------|
B|--------------------------------------------------------------------------------------------|
G|--------------------------------------------------------------------------------------------|
D|--------------------------------------------------------------------------------------------|
A|--------------------------------------------------------------------------------------------|
E|--------------------------------------------------------------------------------------------|
 |
e|--------------------------------------------------------------------------------------------|
B|--------------------------------------------------------------------------------------------|
G|--------------------------------------------------------------------------------------------|
D|--9-----------------------------------------------9----------------4---------------------4--|
A|--7-----------------------------------------------7----------------2---------------------2--|
E|--------------------------------------------------------------------------------------------|


   Bm                 F#m                                                        G5
  ~~~~~~~~                              1         ~~~~                                             ~~~
e|--(14)--(14)\--------17---19----21--19^------------(19)\17--19--21---19---17----17h19----19/21--19---|
B|--------------10/19----------------------------------------------------------------------------------|
G|-----------------------------------------------------------------------------------------------------|
D|-----------------------------------------------------------------------------------------------------|
A|-----------------------------------------------------------------------------------------------------|
E|-----------------------------------------------------------------------------------------------------|
 |
e|----------------------------------------2----------------------------------------------------3-------|
B|--------------------------------------------------------2--------------------------------------------|
G|--------------------------------------------------------------------------------0--------------------|
D|--(4)-----------------4---------------------------------------------------------0--------------------|
A|--(2)-----------------4------------------------------------------------------------------------------|
E|----------------------2---------------------------------------------------------3--------------------|


                                 Bm
      ~~~~~~~~~~~~~~~~~~
e|--(19)----------------(19)\-----------------14------12----10--------------10--|
B|------------------------------------12------------------------14--12--14------|
G|------------------------------7/11------11------11----------------------------|
D|------------------------------------------------------------------------------|
A|------------------------------------------------------------------------------|
E|------------------------------------------------------------------------------|
 |
e|------------------------------------------------------------------------------|
B|---3--------------------------------------------------------------------------|
G|------------------------------------------------------------------------------|
D|---------------0----------------4---------------------------------------------|
A|--------------------------------2---------------------------------------------|
E|------------------------------------------------------------------------------|


    Bm                     A/C#                D II

e|--------------14p10------12p9-----/17p12--------------------------17----14--------------14--|
B|--12------12---------12--------10---------14------15------17----------------17--15--17------|
G|------11--------------------------------------14------14------14----------------------------|
D|--------------------------------------------------------------------------------------------|
A|--------------------------------------------------------------------------------------------|
E|--------------------------------------------------------------------------------------------|
 |
e|--------------------------------------------------------------------------------------------|
B|--------------------------------------------------------------------------------------------|
G|--------------------------------------------------------------------------------------------|
D|--4----------------------7--------------------7-----------------------------7---------------|
A|--2----------------------4--------------------5-----------------------------5---------------|
E|--------------------------------------------------------------------------------------------|


  D II                      E II                 F#m II

e|---------------17p14------16p12-----/19p16------------------21------19----17--------------17--|
B|---15------15---------15---------12---------17------19------------------------21--19--21------|
G|-------14--------------------------------------/18------18------18----------------------------|
D|----------------------------------------------------------------------------------------------|
A|----------------------------------------------------------------------------------------------|
E|----------------------------------------------------------------------------------------------|
 |
e|----------------------------------------------------------------------------------------------|
B|----------------------------------------------------------------------------------------------|
G|----------------------------------------------------------------------------------------------|
D|--(7)---------------------9---------------------11----------------------------11--------------|
A|--(5)---------------------7---------------------9-----------------------------9---------------|
E|----------------------------------------------------------------------------------------------|


   F#m II                  E                         B
                              rake-----|rake------|   ~~~~~~~~~
e|--------------21p17------19p16-----------------16--19----------------------------------------------|
B|--19------19---------19-------17-------------17----------------17p0--19p0--17p0--16p0--14p0--12p0--|
G|------18------------------------16---------16------------------------------------------------------|
D|----------------------------------18-----18--------------------------------------------------------|
A|------------------------------------19-19----------------------------------------------------------|
E|---------------------------------------------------------------------------------------------------|
 |
e|---------------------------------------------------------------------------------------------------|
B|-------------------------5-------------------------------------------------------------------------|
G|-------------------------4--------------------------4----------------------------------------------|
D|--(11)------------(11)\--2--------------------------4----------------------------------------------|
A|--(9)-------------(9)\---2--------------------------2----------------------------------------------|
E|-------------------------0-------------------------------------------------------------------------|

    B

e|------------------|
B|--10p0--9p0--7p0--|
G|------------------| Guitar 5 out
D|------------------|
A|------------------|
E|------------------|
 |
e|------------------|
B|------------------|
G|--(4)-------------|
D|--(4)-------------|
A|--(2)-------------|
E|------------------|

   E                                                                       Asus2
Guitar 6: Cont. same strumming pattern as verse.
Guitars 3 & 4
e|--------------14----------17--14--16--14----------------------14----------------------------------|
B|----------17------17----------------------17--------------17------17------15--14--------------14--|
G|------16--------------16----------------------16------16--------------16----------16--14--16------|
D|--14----------------------------------------------14----------------------------------------------|
A|--------------------------------------------------------------------------------------------------|
E|--------------------------------------------------------------------------------------------------|
 | Guitars 1 & 2   PM----|                                  ~~~~~~~~~~
e|--------------------------------------------------------------------------------------------------|
B|--------------------------------------------------------------------------------------------------|
G|--------------------------------------------------------------------------------------------------|
D|--------------------------------------------------------------------------7-------------------7---|
A|----------7---------------5p0-----4p0---------------------7---------------7---------------7-------|
E|--0---------------0---0-------------------7---5---0-------------------0---5-----------5-----------|


   E                                               G5                     D

e|--------------14----------17--14--16--14----------22--19--21--22p21p19-----------------------------|
B|------------------17----------------------17----------------------------22--19--22------22------22-|
G|--16------16----------16----------------------16------------------------------------21------19-----|
D|------14-------------------------------------------------------------------------------------------|
A|---------------------------------------------------------------------------------------------------|
E|---------------------------------------------------------------------------------------------------|
 |          ~~~~~  PM----|
e|---------------------------------------------------------------------------------------------------|
B|---------------------------------------------------------------------------------------------------|
G|------------------------------------------------------------------------7---7-------7-------7------|
D|--------------------------------------------------5-------5---5--5------7---7-------7-------7------|
A|----------7---------------5p0-----4p0-------------5-------5---5--5------5---5-------5-------5------|
E|--0---------------0---0-------------------7---5---3-------3---3--3---------------------------------|


   E                                                                       Asus2

e|--------------14----------17--14--16--14----------------------14----------------------------------|
B|----------17------17----------------------17--------------17------17------15--14--------------14--|
G|------16--------------16----------------------16------16--------------16----------16--14--16------|
D|--14----------------------------------------------14----------------------------------------------|
A|--------------------------------------------------------------------------------------------------|
E|--------------------------------------------------------------------------------------------------|
 | Guitars 1 & 2   PM----|                                  ~~~~~~~~~~
e|--------------------------------------------------------------------------------------------------|
B|--------------------------------------------------------------------------------------------------|
G|--------------------------------------------------------------------------------------------------|
D|--------------------------------------------------------------------------7-------------------7---|
A|----------7---------------5p0-----4p0---------------------7---------------7---------------7-------|
E|--0---------------0---0-------------------7---5---0-------------------0---5-----------5-----------|


   E                                               G5                   Asus2                   Guitar 6 out

e|--------------14----------17--14--16--14---------------------------------19--22--19--24p21------|
B|----------17------17----------------------17-------------------------20---------------------22--|
G|------16--------------16----------------------16--------------16/19-----------------------------| 
D|--14------------------------------------------------------19------------------------------------| 
A|------------------------------------------------------17----------------------------------------|
E|--------------------------------------------------15--------------------------------------------|
 |          ~~~~~  PM----|
e|------------------------------------------------------------------------------------------------|
B|------------------------------------------------------------------------------------------------|
G|------------------------------------------------------------------------------------------------|
D|--------------------------------------------------5-------5---5--5------7---7-------7-------7---|
A|----------7---------------5p0-----4p0-------------5-------5---5--5------7---7-------7-------7---|
E|--0---------------0---0-------------------7---5---3-------3---3--3------5---5-------5-------5---|


[Chorus] 9/8 time for guitars 1-4 & 8; guitar 7 plays the same until it switches to 12/8 over band 9/8. 
Listen and you'll hear when. (The bass guitar does it first.)

   B5
Guitars 3 & 4
e|-----7--------7--9--5h7p5p4--------7------------------------------7--------7--9--5h7p5p4-----|
B|--------5--7-----------------7--------5--7--4--5--4h5p4--------------5--7-----------------7--|
G|--4-----------------------------4------------------------6-----4-----------------------------|
D|------------------------------------------------------------7--------------------------------|
A|---------------------------------------------------------------------------------------------|
E|---------------------------------------------------------------------------------------------|
 | Guitars 1 & 2
e|---------------------------------------------------------------------------------------------|
B|---------------------------------------------------------------------------------------------|
G|---------------------------------------------------------------------------------------------|
D|--9---(9)\----------------------9--9--9------------------------9-----------------------------|
A|--9---(9)\----------------------9--9--9------------------------9-----------------------------|
E|--7---(7)\----------------------7--7--7------------------------7-----------------------------|
 
   
  N.C.

e|-----------------------------|
B|--5-p4-----------------------|
G|--------6--4-----------------|
D|--------------7--6--4--6--7--|
A|-----------------------------|
E|-----------------------------|
 |  PM-----------------------|
e|-----------------------------|
B|-----------------------------|
G|-----------------------------|
D|--7--6--4--------------------|
A|-----------7--5--4--2--4--5--|
 
   B5

e|-----7--------7--9--5h7p5p4--------7------------------------------7--------7--9--5h7p5p4-----|
B|--------5--7-----------------7--------5--7--4--5--4h5p4--------------5--7-----------------7--|
G|--4-----------------------------4------------------------6-----4-----------------------------|
D|------------------------------------------------------------7--------------------------------|
A|---------------------------------------------------------------------------------------------|
E|---------------------------------------------------------------------------------------------|
 | 
e|---------------------------------------------------------------------------------------------|
B|---------------------------------------------------------------------------------------------|
G|---------------------------------------------------------------------------------------------|
D|--9---(9)\----------------------9--9--9------------------------9--9--------------------------|
A|--9---(9)\----------------------9--9--9------------------------9--9--------------------------|
E|--7---(7)\----------------------7--7--7------------------------7--7--------------------------|
 
   
  N.C.

e|--7--4--5--4-----------------|
B|--------------7--5--4--5--7--|
G|-----------------------------|
D|-----------------------------|
A|-----------------------------|
E|-----------------------------|
 |  
e|-----------------------------|
B|-----------------------------|
G|--9--6--7--6-----------------|
D|--------------9--7--6--7--9--|
A|-----------------------------|
E|-----------------------------|

   B5
Guitar 8
e|------14----------14--16--12h14p12p11----------14-------------------------------|
B|----------12--14-----------------------14----------12--14--9--10-9h10p9---------|
G|--11---------------------------------------11----------------------------11--9--|
D|--------------------------------------------------------------------------------|
A|--------------------------------------------------------------------------------|
E|--------------------------------------------------------------------------------|
 | Guitars 3 & 4
e|------7-----------7---9---5-h7-p5-p4-----------7--------------------------------|
B|----------5---7------------------------7-----------5---7---4--5--4h5-p4--6---7--|
G|--4----------------------------------------4------------------------------------|
D|--------------------------------------------------------------------------------|
A|--------------------------------------------------------------------------------|
E|--------------------------------------------------------------------------------|
 | Guitar 7
e|--------------------------------------------------------------------------------|
B|------0-------0-------0---------0------0-------0-------0-------0-------0------0-|
G|--4-------4-------4-------4--------4-------4-------4-------4-------4------4-----|
D|--------------------------------------------------------------------------------|
A|--------------------------------------------------------------------------------|
E|--------------------------------------------------------------------------------|
 | Guitar 1 & 2
e|--------------------------------------------------------------------------------|
B|--------------------------------------------------------------------------------|
G|--------------------------------------------------------------------------------|
D|--9----------------------------------------9------------------------------------|
A|--9----------------------------------------9------------------------------------|
E|--7----------------------------------------7------------------------------------|

  
   B5                                                             A5

e|------14----------14--16--12h14p12p11--------------------------------------|
B|----------12--14-----------------------14--10p9----------------------------|
G|--11---------------------------------------------11--9---------------------|
D|--------------------------------------------------------13--11--9--11--13--|
A|---------------------------------------------------------------------------|
E|---------------------------------------------------------------------------|
 |
e|------7-----------7---9---5-h7-p5-p4---------------------------------------|
B|----------5---7------------------------7---5-p4----------------------------|
G|--4----------------------------------------------6---4---------------------|
D|--------------------------------------------------------7---6---4--6---7---|
A|---------------------------------------------------------------------------|
E|---------------------------------------------------------------------------|
 |
e|---------------------------------------------------------------------------|
B|------0-------0-------0-------0----0-------0-------0-------0------0------0-|
G|--4-------4-------4-------4-----4-----4-------4-------4-------4------4-----|
D|---------------------------------------------------------------------------|
A|---------------------------------------------------------------------------|
E|---------------------------------------------------------------------------|
 |
e|---------------------------------------------------------------------------|
B|---------------------------------------------------------------------------|
G|---------------------------------------------------------------------------|
D|--9------------------------------------9------------------------7----------|
A|--9------------------------------------9------------------------7----------|
E|--7------------------------------------7------------------------5----------|

  E5

e|------14----------14--16--12h14p12p11----------14-------------------------------|
B|----------12--14-----------------------14----------12--14--9--10-9h10p9---------|
G|--11---------------------------------------11----------------------------11--9--|
D|--------------------------------------------------------------------------------|
A|--------------------------------------------------------------------------------|
E|--------------------------------------------------------------------------------|
 | 
e|------7-----------7---9---5-h7-p5-p4-----------7--------------------------------|
B|----------5---7------------------------7-----------5---7---4--5--4h5-p4--6---7--|
G|--4----------------------------------------4------------------------------------|
D|--------------------------------------------------------------------------------|
A|--------------------------------------------------------------------------------|
E|--------------------------------------------------------------------------------|
 | 
e|--------------------------------------------------------------------------------|
B|------0-------0-------0---------0------0-------0-------0-------0-------0------0-|
G|--4-------4-------4-------4--------4-------4-------4-------4-------4------4-----|
D|--------------------------------------------------------------------------------|
A|--------------------------------------------------------------------------------|
E|--------------------------------------------------------------------------------|
 | 
e|--------------------------------------------------------------------------------|
B|-------------------------------------------5------------------------------------|
G|-------------------------------------------4------------------------------------|
D|--2----------------------------------------2------------------------------------|
A|--2-----------------------------------------------------------------------------|
E|--0-----------------------------------------------------------------------------|


   E5                                                            A5

e|------14----------14--16--12h14p12p11--14--11--12--11----------------------|
B|----------12--14---------------------------------------14--12--9--10--12---|
G|--11-----------------------------------------------------------------------|
D|---------------------------------------------------------------------------|
A|---------------------------------------------------------------------------|
E|---------------------------------------------------------------------------|
 |
e|------7-----------7---9---5-h7-p5-p4---7---4---5---4-----------------------|
B|----------5---7----------------------------------------7---5---4--5---7----|
G|--4------------------------------------------------------------------------|
D|---------------------------------------------------------------------------|
A|---------------------------------------------------------------------------|
E|---------------------------------------------------------------------------|
 |
e|---------------------------------------------------------------------------|
B|------0-------0-------0-------0----0-------0-------0-------0------0------0-|
G|--4-------4-------4-------4-----4-----4-------4-------4-------4------4-----|
D|---------------------------------------------------------------------------|
A|---------------------------------------------------------------------------|
E|---------------------------------------------------------------------------|
 |
e|---------------------------------------------------------------------------|
B|---------------------------------------------------------------------------|
G|---------------------------------------------------------------------------|
D|--2------------------------------------2-----------------------7-----------|
A|--2------------------------------------2-----------------------7-----------|
E|--0------------------------------------0-----------------------5-----------|

 

  B5

e|------14----------14--16--12h14p12p11----------14-------------------------------|
B|----------12--14-----------------------14----------12--14--9--10-9h10p9---------|
G|--11---------------------------------------11----------------------------11--9--|
D|--------------------------------------------------------------------------------|
A|--------------------------------------------------------------------------------|
E|--------------------------------------------------------------------------------|
 | 
e|------7-----------7---9---5-h7-p5-p4-----------7--------------------------------|
B|----------5---7------------------------7-----------5---7---4--5--4h5-p4--6---7--|
G|--4----------------------------------------4------------------------------------|
D|--------------------------------------------------------------------------------|
A|--------------------------------------------------------------------------------|
E|--------------------------------------------------------------------------------|
 |          ~~~~                                         ~~~~~  ~~~~~~~
e|--------------------------------------------------------------------------------|
B|--7--p0---7-------7--h9---10---p9----p7--------7---9---7---------------------4--|
G|-------------------------------------------9-----------------\4-------6---------|
D|--------------------------------------------------------------------------------|
A|--------------------------------------------------------------------------------|
E|--------------------------------------------------------------------------------|
 | 
e|--------------------------------------------------------------------------------|
B|--------------------------------------------------------------------------------|
G|--------------------------------------------------------------------------------|
D|--9----------------------------------------9------------------------------------|
A|--9----------------------------------------9------------------------------------|
E|--7----------------------------------------7------------------------------------|

 
  B5           A5         B5

e|------14----------14--16--12h14p12p11----------14-------------------------------|
B|----------12--14-----------------------14----------12--14--9--10-9h10p9---------|
G|--11---------------------------------------11----------------------------11--9--|
D|--------------------------------------------------------------------------------|
A|--------------------------------------------------------------------------------|
E|--------------------------------------------------------------------------------|
 | 
e|------7-----------7---9---5-h7-p5-p4-----------7--------------------------------|
B|----------5---7------------------------7-----------5---7---4--5--4h5-p4--6---7--|
G|--4----------------------------------------4------------------------------------|
D|--------------------------------------------------------------------------------|
A|--------------------------------------------------------------------------------|
E|--------------------------------------------------------------------------------|
 |                                       ~~~~
e|--------------------------------------------------------------------------------|
B|--5--p4-------------------------------------------------------------------------|
G|----------6------4---6---4-------------4----------------------------------------|
D|--------------7--------------------------------4---6--h7--p6-p4-------4------6--|
A|-----------------------------------------------------------------7--------------|
E|--------------------------------------------------------------------------------|
 |
e|--------------------------------------------------------------------------------|
B|--------------------------------------------------------------------------------|
G|--------------------------------------------------------------------------------|
D|-(9)----------7----------9------------------------------------------------------|
A|-(9)----------7----------9------------------------------------------------------|
E|-(7)----------5----------7------------------------------------------------------|


   B5

e|------14----------14--16--12h14p12p11------------------|
B|----------12--14-----------------------14--9h10p9------|
G|--11-----------------------------------------------11--|
D|-------------------------------------------------------|
A|-------------------------------------------------------|
E|-------------------------------------------------------|
 | 
e|------7-----------7---9---5-h7-p5-p4-------------------|
B|----------5---7------------------------7---------------|
G|--4----------------------------------------4h5-p4------|
D|---------------------------------------------------6---|
A|-------------------------------------------------------|
E|-------------------------------------------------------|
|
e|-------------------------------------------------------|
B|-------------------------------------------------------|
G|-------------------------------------------------------|
D|--4----------------------------------------------------|
A|------------------4---6--h7----p6-----p4---------------|
E|----------7--------------------------------5-----(5)/--|
 |
e|-------------------------------------------------------|
B|-------------------------------------------------------|
G|-------------------------------------------------------|
D|-(9)---------------------------------------7-----------|
A|-(9)---------------------------------------7-----------|
E|-(7)---------------------------------------5-----------|


   E5

e|------14----------14--16--12h14p12p11----------14-------------------------------|
B|----------12--14-----------------------14----------12--14--9--10-9h10p9---------|
G|--11---------------------------------------11----------------------------11--9--|
D|--------------------------------------------------------------------------------|
A|--------------------------------------------------------------------------------|
E|--------------------------------------------------------------------------------|
 | 
e|------7-----------7---9---5-h7-p5-p4-----------7--------------------------------|
B|----------5---7------------------------7-----------5---7---4--5--4h5-p4--6---7--|
G|--4----------------------------------------4------------------------------------|
D|--------------------------------------------------------------------------------|
A|--------------------------------------------------------------------------------|
E|--------------------------------------------------------------------------------|
 |           ~~~~~                                       ~~~~   ~~~
e|--------------------------------------------------------------------------------|
B|--12-p0---12------12--14--15---p14----p12------12--14--12----------------9--10--|
G|-------------------------------------------14-----------------9-------11--------|
D|--------------------------------------------------------------------------------|
A|--------------------------------------------------------------------------------|
E|--------------------------------------------------------------------------------|
 |
e|--------------------------------------------------------------------------------|
B|--------------------------------------------------------------------------------|
G|--9----------------------------------------------------9------------------------|
D|--9----------------------------------------------------9------------------------|
A|--7----------------------------------------------------7------------------------|
E|--------------------------------------------------------------------------------|


   E5

e|------14----------14--16--12h14p12p11----------14-------------------------------|
B|----------12--14-----------------------14----------12--14--9--10-9h10p9---------|
G|--11------            
Submit corrections


        Glasgow Kiss lessons Hard to play? Try these video lessons and learn fast Glasgow Kiss lessons
        
↑ Back to top | Tablatures and chords for acoustic guitar and electric guitar, ukulele, drums are parodies/interpretations of the original songs. You may use it for private study, scholarship, research or language learning purposes only