Home » J » Johnossi »

Johnossi - Gone Forever Tabs

Artists:  A B C D E F G H I J K L M N O P Q R S T U V W X Y Z # 

Gone Forever Tabs

(ver. 1) Click to play this song!
Johnossi
Johnossi - Gone Forever:

My first tab i've done and it would be nice to hear some oppinions!
(there may be some mistakes)

(standard tuning)

Intro
(0-12s)

E:-------------------------------|
B:-------------------------------|
G:-------------------------------|
D:-------------------------------|
A:------0---5---2---0---2-4------|
E:-2---4----------------------2--|

Piano:
(12-28s)

E:-7-9-7-----------------|
B:-------10-7----7-10----|
G:-------------9---------|  3x
D:-----------------------|
A:-----------------------|
E:-----------------------|

E:-7-9-7----------|
B:-------10-7-----|
G:----------------| 1x
D:----------------|
A:----------------|
E:----------------|

Strumming together with piano:
(x=mute) (12-28s)

E:--------------------------|
B:--------------------------|
G:--------7-----7-----------| (listen to song for strummingpattern)
D:--4--7--7--9--7--7--4-----| 1x
A:--4--7--5--9--5--7--4-----|
E:--2--5-----7-----5--2-----|

Song starts...
(28-1:02s)

E:------------------------------|
B:------------------------------|
G:----7-------------------------| 3x
D:-4--7--9--7--4----------------|
A:-4--5--9--7--4----------------|
E:-2-----7--5--2----------------|

(1:02-1:17s)
E:--------------------------|
B:--------------------------|
G:--------7-----7-----------| (one strum on each chord)
D:--4--7--7--9--7--7--4-----| 1x
A:--4--7--5--9--5--7--4-----|
E:--2--5-----7-----5--2-----|

(1:17-1:32s)
E:-------------------------------------|
B:-------------------------------------|
G:--------7-----7----------------------| (listen to song for strummingpattern)
D:--4--7--7--9--7--7--4----------------| 1x
A:--4--7--5--9--5--7--4----------------|
E:--2--5-----7-----5--2----------------|

(1:32-1:55s)
E:---------------------------------|
B:---------------------------------|
G:----7----------------------------| 2x (listen to song for strummingpattern)
D:-4--7--9--7--4-------------------|
A:-4--5--9--7--4-------------------|
E:-2-----7--5--2-------------------|

(1:55-2:38s)
E:-------------------------------------|
B:-------------------------------------|
G:--------7-----7----------------------| (listen to song for strummingpattern)
D:--4--7--7--9--7--7--4----------------| 1x
A:--4--7--5--9--5--7--4----------------|
E:--2--5-----7-----5--2----------------|

Piano:
(2:23-2:37s)

E:-7-9-7-----------------|
B:-------10-7----7-10----|
G:-------------9---------|  3x
D:-----------------------|
A:-----------------------|
E:-----------------------|

E:-7-9-7----------|
B:-------10-7-----|
G:----------------| 1x
D:----------------|
A:----------------|
E:----------------|

Solo (2:38-3:06s)
E:--------------------------------x-----------|
B:----------------5---------------7-----------|
G:--------------7--7-6--6-4-------6-----------|
D:--4--6-5--6-5-------------7-6-4-4--6-5--6-5-|
A:--------------------------------------------|
E:--------------------------------------------|

E:-------------------------x-----------------------------x------------|
B:-------------------------x-------------5---------------7------------|
G:--6/7-7/9/7-6--6-4-------x-----------7--7-6--6-4-------6------------|
D:-4-----------------7-6---4--6-5--6-5-------------7-6-4-4--6-5--6-5--|
A:-------------------------4------------------------------------------|
E:-----------------------2-2------------------------------------------|


E:--------------------------|
B:--------------------------|
G:--6/7-7/9/7-6--6-4--------|
D:-4-----------------7-6----|
A:--------------------------|
E:-----------------------2--| (better to skip this last note if you're playing the drumpart)

(drums Building up 3:06-3:20)
I think this part is silent, but it
works playing this if u wanna do something (but mute all the strings):

E:-------------------------------------|
B:-------------------------------------|
G:--------7-----7----------------------| (strum to the same beat as the drum)
D:--4--7--7--9--7--7--4----------------| 1x
A:--4--7--5--9--5--7--4----------------|
E:--2--5-----7-----5--2----------------|

(3:20-End of song)
E:-------------------------------------|
B:-------------------------------------|
G:--------7-----7----------------------| (listen to song for strummingpattern)
D:--4--7--7--9--7--7--4----------------| 3x
A:--4--7--5--9--5--7--4----------------|
E:--2--5-----7-----5--2----------------|

Piano:
(3:34-End of song)

E:-7-9-7-----------------|
B:-------10-7----7-10----|
G:-------------9---------|  3x
D:-----------------------|
A:-----------------------|
E:-----------------------|

E:-7-9-7----------|
B:-------10-7-----|
G:----------------| 1x
D:----------------|
A:----------------|
E:----------------|
            
Submit corrections

↑ Back to top | Tablatures and chords for acoustic guitar and electric guitar, ukulele, drums are parodies/interpretations of the original songs. You may use it for private study, scholarship, research or language learning purposes only