Home » J » Johnossi »

Johnossi - Execution Song Tabs

Artists:  A B C D E F G H I J K L M N O P Q R S T U V W X Y Z # 

Execution Song Tabs

(ver. 1) Click to play this song!
Johnossi
Johnossi-Execution Song

Album:Johnossi

i will never forget stuttgart 11.11.2006

Intro:

|-------------------------------------------------------------------------|
|-------------------------------------------------------------------------|
|---4*--4*--4~------4*----------------------------------------------------|
|---4*--4*--4~------4*----------------------------------------------------|
|---2*--2*--2~------2*----------------------------------------------------|
|-------------------------------------------------------------------------|

Vers: 

    B        C# D       E         F#
|-------------------------------------------------------------------------|
|-------------------------------------------------------------------------|
|---4-4-xxx--6/7-7-xxx--99-xxxx--11-11-11---------------------------------|
|---4-4-xxx--6/7-5-xxx--99-xxxx--11-11-11---------------------------------|
|---2-2-xxx--4/5-5-xxx--77-xxxx--9--9--9----------------------------------|
|-------------------------------------------------------------------------|

Refrain:

      Bm                  Dm                  A         G
|-------------------------------------------------------------------------|
|----3333333-------------6666666------------------------------------------|
|----4444444-------------7777777------------------------------------------|
|----4444444-------------7777777------------7777777---55555555------------|
|----2222222-------------5555555------------7777777---55555555------------|
|-------------------------------------------5555555---33333333------------|

Bridge: 
     D         A          G        F#
|-------------------------------------------------------------------------|
|-------------------------------------------------------------------------|
|----77777777-------------------------------------------------------------|
|----77777777--77777777---55555555-4--------------------------------------|
|----55555555--77777777---55555555-4--------------------------------------|
|--------------55555555---33333333-2--------------------------------------|



Intro x1
Vers  x1
Ref   x2
Vers  x2
Ref   x2
Bridge x1
Vers x2 
Ref x2
            
Submit corrections

↑ Back to top | Tablatures and chords for acoustic guitar and electric guitar, ukulele, drums are parodies/interpretations of the original songs. You may use it for private study, scholarship, research or language learning purposes only