Home » J » Johnossi »

Johnossi - Bobby Tabs

Artists:  A B C D E F G H I J K L M N O P Q R S T U V W X Y Z # 

Bobby Tabs

(ver. 1) Click to play this song!
Johnossi
----------------------------------------------------------------------------
                             BOBBY - Johnossi
----------------------------------------------------------------------------

Use a capo on the second fret!

It's only the solo, because there was already a good tab for the song itself, but I 
one for the solo, so here it is! :)
The solo starts at 2:28

Tuning: EADGBE, capo 2d fret

e|---0----3-0---0-0--------------3-3---0-0-0-0--0--0-0-0-0-----------------|
B|---0----0-0---3-0--------------0-0-0-3-1-0-2--0--2-2-2-2-----------------|
G|-0-0----0-0---0-0------3-2-0---0-0-0-0-0-0-2--2--2-2-2-2-----------------|
D|-2---0------0------0-0-------x-0-0---------2--2--2-2-2-2-----------------|
A|-2---0------0------0-0-------x-2-2---------0-----------------------------|
E|-0---0------0------0-0-------x-3-3---------------------------------------|

e|--------------------------------------3-3---0-0-0-0—-0--0-0-0-0----------|
B|--------------------------------------0-0-0-3-1-0-2--0--2-2-2-2----------|
G|-7-9-9--7-9-9--7-9-9--7-9-9--7-9\\----0-0-0-0-0-0-2--2--2-2-2-2----------|
D|-7-9-9--7-9-9--7-9-9--7-9-9--7-9\\--x-0-0---------2--2--2-2-2-2----------|
A|------------------------------------x-2-2---------0----------------------|
E|------------------------------------x-3-3--------------------------------|

e|-0--0-0-0-0-0-x--2--2-2-2-2-0-0------------------------------------------|
B|-1--1-1-1-0-0-x--3--3-3-3-3-0-0------------------------------------------|
G|-0--0-0-0-0-0-x--2--2-2-2-2-0-0-0------------0-2b4r2h0---5-7-5-7~--------|
D|-2--2-2-2-0-0-x--0--0-0-0-0-0-0-2----0-2-0-2-----------2-----------------|
A|-3--3-3-3-------------------0-0-2----------------------------------------|
E|--------------------------------0----------------------------------------|

e|-0--0-0-0-0-0-x--2--2-2-2-2-0-0----0h3-0---------------------------------|
B|-1--1-1-1-0-0-x--3--3-3-3-3-0-0----------3-0-0---------------------------|
G|-0--0-0-0-0-0-x--2--2-2-2-2-0-0-0---------------2h4-2-2p0--0-----0-------|
D|-2--2-2-2-0-0-x--0--0-0-0-0-0-0-2----------------------------2-2---------|
A|-3--3-3-3-------------------0-0-2----------------------------------------|
E|--------------------------------0----------------------------------------|

e|-0--0-0-0-0-0-x--2--2-2-2-2-0--------------------------------------------|
B|-1--1-1-1-0-0-x--3--3-3-3-3-0--------------------------------------------|
G|-0--0-0-0-0-0-x--2--2-2-2-2-0----7-9-9--7-9-9—-11-11-9-7---7-9-9---------|
D|-2--2-2-2-0-0-x--0--0-0-0-0-0----7-9-9--7-9-9--11-11-9-7---7-9-9---------|
A|-3--3-3-3-------------------0--------------------------------------------|
E|-------------------------------------------------------------------------|

e|-0--0-0-0-0-0-x----2-2-2-2--2-3--0---------2-3----0-------------3--0-----|
B|-1--1-1-1-0-0-x----3-3-3-3--3-4--0---------3-4----0-------------0--0-----|
G|-0--0-0-0-0-0-x----2-2-2-2--2-3—-0---------2-3----0-------------0--0-----|
D|-2--2-2-2-0-0-x----0-0-0-0--0-0--2---------0-0----2-------------0--2-----|
A|-3--3-3-3------------------------2----------------2-------------2--2-----|
E|------------------------------------------------------0-2-0--3--3--0-----|

| /  slide up
| \  slide down
| h  hammer-on
| p  pull-off
| ~  vibrato
| +  harmonic
| x  Mute note
            
Submit corrections

↑ Back to top | Tablatures and chords for acoustic guitar and electric guitar, ukulele, drums are parodies/interpretations of the original songs. You may use it for private study, scholarship, research or language learning purposes only