» » »

Johnny Marr - Please Please Please Let Me Get What I Want Bass

Artists:  A B C D E F G H I J K L M N O P Q R S T U V W X Y Z # 

Please Please Please Let Me Get What I Want Bass

(ver. 1) Click to play this song!
Johnny Marr
 Rating:
3/5 (29 votes)

 Please Please Please Let Me Get What I Want lessons Tabs too difficult? Try these video lessons and learn fast
 
                INTRO
******
01:15
G|--------------|------------------|------------|-------|-------------------|---------|
D|--------------|------------------|------------|-------|----------4--------|---------|
A|-4-5----------|-0-2-4-5--4-------|------------|-------|-2--4--5----5------|-0-2-4-5-|
E|-----3--3-0-5-|-------------3--3-|-0-3--3-0-5-|-5-3-5-|--------------3--5-|---------|


-------------------------------
VERSE 1
********
01:39
G|--------|-----------------|-------------------------------|
D|--------|-----------------|-------------------------------|
A|-5--4---|-0-2-4-5--5--4---|-------------------------------|
E|------5-|---------------5-|-5-0-2--2-0-2-3--3-2-0-5--5--5-|


-------------------------------
CHORUS
*******
01:54
G|---------|---------|------------------|-----|---------|-------|----------------|---------|---------|
D|---------|---------|------------------|-----|---------|-------|----------4-----|---------|---------|
A|-0-4-5---|---------|-0-2-4-5--4-------|-----|---------|-------|-2--4--5----5---|---------|-0-2-4-5-|
E|-------3-|-3-2-0-5-|-------------3--3-|-0-3-|-3-2-0-5-|-5-3-5-|--------------3-|-3-2-0-5-|---------|


-------------------------------
VERSE 2
********
02:19
G|--------|-----------------|-------------------------------|
D|--------|-----------------|-------------------------------|
A|-5--4---|-0-2-4-5--5--4---|-------------------------------|
E|------5-|---------------5-|-5-0-2--2-0-2-3--3-2-0-5--5--5-|


-------------------------------
CHORUS
*******
02:34
G|---------|---------|------------------|-----|---------|-------|----------------|---------|---------|
D|---------|---------|------------------|-----|---------|-------|----------4-----|---------|---------|
A|-0-4-5---|---------|-0-2-4-5--4-------|-----|---------|-------|-2--4--5----5---|---------|-0---0-5-|
E|-------3-|-3-2-0-5-|-------------3--3-|-0-3-|-3-2-0-5-|-5-3-5-|--------------3-|-3-2-0-5-|---3-----|


-------------------------------
                     SOLO  
02:58                *****
G|------------------|---------|------------------|-----|---------|---------|
D|------------------|---------|------------------|-----|---------|---------|
A|-5---5-3--3-3-----|---------|-0-2-4-5--4-------|-----|---------|-0---0-5-|
E|---5----------5-3-|-3-2-0-5-|-------------3--3-|-0-3-|-3-2-0-5-|---2-----|

03:16
G|-------------------------------|-----------------------------------|----------------|
D|-------------------------------|------------------s----------------|--h-------------|
A|-5---5-3--3-3------------------|---2--2----2--4--5\---------s---10-|-9-10-9---------|
E|---5----------5-2--2-2-2--2--4-|-2-------2-----------3--3--6\10----|--------10-5--5-|


-------------------------------
CHORUS
*******
03:52
G|---------------|---------|------------------|-----|---------|-------|----------------|---------|
D|---------------|---------|------------------|-----|---------|-------|----------4-----|---------|
A|---------4-5---|---------|-0-2-4-5--4-------|-----|---------|-------|-2--4--5----5---|---------|
E|-5-5-5-5-----3-|-3-2-0-5-|-------------3--3-|-0-3-|-3-2-0-5-|-5-3-5-|--------------3-|-3-2-0-5-|

04:15
G|--------------------------------|
D|----------------4---------------|
A|-0---0-2--4--5----5-----------5-|
E|---2----------------3----5------|
            
Submit corrections


        Please Please Please Let Me Get What I Want lessons Hard to play? Try these video lessons and learn fast Please Please Please Let Me Get What I Want lessons
        
↑ Back to top | Tablatures and chords for acoustic guitar and electric guitar, ukulele, drums are parodies/interpretations of the original songs. You may use it for private study, scholarship, research or language learning purposes only