» » »

Johnny Marr - Easy Money Tabs

Artists:  A B C D E F G H I J K L M N O P Q R S T U V W X Y Z # 

Easy Money Tabs

(ver. 1) Click to play this song!
Johnny Marr
 Rating:
3.5/5 (28 votes)

 Easy Money  lessons Tabs too difficult? Try these video lessons and learn fast
 
                Main riff (Chorus/Intro/Bridge):
E|-9--9--9--9--9--9--9--7----5--5--5--5--5-
B|-10-10-10-10-10-10-10-7----7--7--7--7--7-
G|-11-11-11-11-11-11-11-8----7--7--7--7--7-
D|-11-11-11-11-11-11-11-9----7--7--7--7--7-
A|-9--9--9--9--9--9--9--9----5--5--5--5--5-
E|-9--9--9--9--9--9--9--7----5--5--5--5--5-

E|-7----5--5--5--5--5--7----5--5--5--5--5-
B|-7----7--7--7--7--7--7----5--5--5--5--5-
G|-8----7--7--7--7--7--8----6--6--6--6--6-
D|-9----7--7--7--7--7--9----7--7--7--7--7-
A|-9----5--5--5--5--5--9----5--5--5--5--5-
E|-7----5--5--5--5--5--7----5--5--5--5--5-

Pre Verse:
E|------------------
B|------------------
G|------------------
D|-4----4----4----4-
A|-4----4----4----4-
E|-2----2----2----2-

Verse:
E|---------------------------------------------------
B|-10-10---10-9---5~~~~------5~~~~---5~~~~------5~~~~
G|-9--9----9--8---7b1~~------7b1~~---7b1~~------7b1~~
D|-X--X----X--X--------------------------------------
A|-7--7----7--6--------------------------------------
E|---------------------------------------------------

E|-------------------------------------------------------------
B|-------------------------------------------------------------
G|-7--7--7--6--7----7--7--7--7--6--7--4~~~~~~~~~~~~~4--4--4--4-
D|-X--X--X--X--X----X--X--X--X--X--X--X~~~~~~~~~~~~~X--X--X--X-
A|-5--5--5--4--5----5--5--5--5--4--5--2~~~~~~~~~~~~~2--2--2--2-
E|-------------------------------------------------------------

Second Verse:
E|-0--0--0--0--0--0--0--0--0--0--0--0--0--0--0--0-
B|-5--5--5--5--5--5--5--5--5--5--5--5--5--5--5--5-
G|------------------------------------------------
D|------------------------------------------------
A|------------------------------------------------
E|------------------------------------------------

E|-------------------------------------------------------------
B|-------------------------------------------------------------
G|-7--7--7--6--7----7--7--7--7--6--7--4~~~~~~~~~~~~~4--4--4--4-
D|-X--X--X--X--X----X--X--X--X--X--X--X~~~~~~~~~~~~~X--X--X--X-
A|-5--5--5--4--5----5--5--5--5--4--5--2~~~~~~~~~~~~~2--2--2--2-
E|-------------------------------------------------------------            
Submit corrections


        Easy Money  lessons Hard to play? Try these video lessons and learn fast Easy Money  lessons
        
↑ Back to top | Tablatures and chords for acoustic guitar and electric guitar, ukulele, drums are parodies/interpretations of the original songs. You may use it for private study, scholarship, research or language learning purposes only