» » »

Johnny Flynn - Tabs

Artists:  A B C D E F G H I J K L M N O P Q R S T U V W X Y Z # 

Tabs

(ver. 1) Click to play this song!
Johnny Flynn
 Rating:
4.3/5 (27 votes)

  lessons Tabs too difficult? Try these video lessons and learn fast
 
                [Intro]
e|------0---------------0---------------0---------------0h2----------|
B|------------0---------------0---------------1-------------3--------|
G|-------------------------------------------------------------------|  x2
D|------2-------2-------2-------0-------2-------2---0---0-----0------|
A|----------2---------------2-------3-------3------------------------|
E|--0---------------0------------------------------------------------|

[Verse]
e|------0---------------0---------------0---------------0------------|
B|------------0---------------0---------------1---------------1------|
G|-------------------------------------------------------------------|
D|------2-------2-------2-------0-------2-------2-------2-------2----|
A|----------2---------------2-------3-------3-------3-------3--------|
E|--0---------------0------------------------------------------------|


e|------0h2-----------2---------------0-------0-------0-------------0-------0------|
B|----------3---------------3-------------------------------3-----------------0----|
G|------------------------------------------------------------------1--------------|
D|--0---0-----0-------4-------4---0---0-------0-------2---------2-------2-------2--|
A|----------------2---------------------------------------2------------------------|
E|----------------------------------------3-------0--------------------------------|

[Chorus]
e|------0---------------0---------------0-----------0-------0------|
B|------------1---------------0---------------3---------------1----|
G|--------------------------------------------------1--------------|  2x
D|------2-------2-------1-------1-------2-------2-------2-------2--|
A|--3---------------2-----------------------2----------------------|
E|----------------------------------0------------------------------|


e|------0---------------0---------------2---3---0--|
B|------------1---------------0---------3---3---2--|
G|--------------------------------------2---0---2--|
D|------2-------2-------1-------1---0---0---0---2--|
A|--3---------------2-----------------------2---0--|
E|------------------------------------------3------|

After chorus, start intro again.

[Bridge]
e|------0---------------0--------------------------------------|
B|------------0---------------0---------0-------------0--------|
G|------------------------------------------0-------------0----|
D|------2-------2-------2-------0------------------------------|
A|----------2---------------2-----------2-----2-------2-----2--|
E|--0---------------0---------------3-------------3------------|

e|------0h2-----------2-------------0---------------0h2-------|
B|----------3-------------3---------------0-------------3-----|
G|------------------------------------------------------------|
D|--0---0-----0---0---0-----0-------2-------2---0---0-----0---|
A|--------------------------------------2---------------------|
E|------------------------------0-----------------------------|

e|------0---------------0-------------------------------------------0h2-----------2---------|
B|------------0---------------0---------0-------------0-----------------3-------------3-----|
G|------------------------------------------0-------------0---------------------------------|
D|------2-------2-------2-------0-------------------------------0---0-----0---0---0-----0---|
A|----------2---------------2-----------2-----2-------2-----2-------------------------------|
E|--0---------------0---------------3-------------3-----------------------------------------|


e|------0---------------0----------|
B|------------0---------------1----|
G|---------------------------------|  x2
D|------2-------2-------2-------2--|
A|----------2-------3--------------|
E|--0------------------------------|


e|------0---------------0-----------0-----------0---------0---2---|
B|------------1-------------1-----------1-----------1---------3---|
G|--------------------------------------0---------------------2---|  x2
D|------2-------2-------2-----------2-----------2-----2-------0---|
A|--3---------------3-----------3-----------3-------------3-------|
E|----------------------------------------------------------------|            
Submit corrections


         lessons Hard to play? Try these video lessons and learn fast  lessons
        
↑ Back to top | Tablatures and chords for acoustic guitar and electric guitar, ukulele, drums are parodies/interpretations of the original songs. You may use it for private study, scholarship, research or language learning purposes only