» » »

John Mellencamp - Jack And Diane Tabs

Artists:  A B C D E F G H I J K L M N O P Q R S T U V W X Y Z # 

Jack And Diane Tabs

(ver. 1) Click to play this song!
John Mellencamp
 Rating:
4.8/5 (25 votes)


 Jack And Diane lessons Tabs too difficult? Try these video lessons and learn fast
 
                Other Tabs by me:
     - 3 AM -Matchbox 20
     - Far Away -Nickelback


Legend:
   .. - palm mute
    * - let ring
    x - dead note
    / - slide

Tuning: Standard (EADGBE)

Intro (electric w/ distortion and acoustic guitar)


pm                   ..     ...

|5~--|-4---5-4-|-2--------|--------|
|5~--|-5---5-5-|-3--------|--------|
|6~--|-4---6-4-|-2--------|--------|
|7~--|-6---7-6-|-4---0000-|-000000-|x3
|0~--|-0---0-0-|-0--------|--------|
|----|---------|----------|--------|


Verse (Acoustic Guitar)


|5-7---4---4-4--|2--2---4---5-4--xx-|5-7---4--4-4-xx-|2--4--5--5-5-xx-|
|5-5---5---5-5--|3--3---5---5-5--xx-|5-5---5--5-5-xx-|3--5--5--5-5-xx-|
|6-6---4---4-4--|2--2---4---4-4--xx-|6-6---4--4-4-xx-|2--4--6--6-6-xx-|
|---------------|-------------------|----------------|----------------|x2
|---------------|-------------------|----------------|----------------|
|---------------|-------------------|----------------|----------------|

     Little dirty  'bout Jack and...


Interlude (Acoustic Guitar)


              *let ring(fifth string only)     *
|-------------------|---------------|-----------------|--------------|
|2-3-2-3/5-----5-xx-|-3---3--5--5-5-|2-3-2-3/5---5-xx-|3---3--2------|
|2-2-2-2/4-----4-xx-|-2---2--4--6-4-|2-2-2-2/4---4-xx-|2---2--2------|
|2-4-2-4/6-----6-xx-|-4---4--6--6-6-|2-4-2-4/6---6-xx-|4---4--2------|
|0-0-0-0-----0-0~---|-0---0--0--0-0-|0-0-0-0---0-0----|0---0--0------|
|-------------------|---------------|-----------------|--------------|

Verse (Acoustic Guitar)


|5-7---4---4-4--|2--2---4---5-4--xx-|5-7---4--4-4-xx-|2--4--5--5-5-xx-|
|5-5---5---5-5--|3--3---5---5-5--xx-|5-5---5--5-5-xx-|3--5--5--5-5-xx-|
|6-6---4---4-4--|2--2---4---4-4--xx-|6-6---4--4-4-xx-|2--4--6--6-6-xx-|
|---------------|-------------------|----------------|----------------|x2
|---------------|-------------------|----------------|----------------|
|---------------|-------------------|----------------|----------------|

Chorus (Acoustic Guitar)


|5-7--4----4-4-|2--4--4-4-xx|-5-7--4---4-4-|2--4--5--5-5---|
|5-5--5----5-5-|3--5--5-5-xx|-5-5--5---5-5-|3--5--5--5-5---|
|6-6--4----4-4-|2--4--4-4-xx|-6-6--4---4-4-|2--4--6--6-6---|
|--------------|------------|--------------|---------------|x2
|--------------|------------|--------------|---------------|
|--------------|------------|--------------|---------------|

     "Oh yeah,  life goes on ...


Interlude 2 (Electric w/ distortion and Acoustic Guitar)


pm                   ..     ...

|5~--|-4---5-4-|-2--------|--------|
|5~--|-5---5-5-|-3--------|--------|
|6~--|-4---6-4-|-2--------|--------|
|7~--|-6---7-6-|-4---0000-|-000000-|x2
|0~--|-0---0-0-|-0--------|--------|
|----|---------|----------|--------|


Verse (Acoustic Guitar)


|5-7---4---4-4--|2--2---4---5-4--xx-|5-7---4--4-4-xx-|2--4--5--5-5-xx-|
|5-5---5---5-5--|3--3---5---5-5--xx-|5-5---5--5-5-xx-|3--5--5--5-5-xx-|
|6-6---4---4-4--|2--2---4---4-4--xx-|6-6---4--4-4-xx-|2--4--6--6-6-xx-|
|---------------|-------------------|----------------|----------------|x2
|---------------|-------------------|----------------|----------------|
|---------------|-------------------|----------------|----------------|

Chorus (Acoustic Guitar)


|5-7--4----4-4-|2--4--4-4-xx|-5-7--4---4-4-|2--4--5--5-5---|
|5-5--5----5-5-|3--5--5-5-xx|-5-5--5---5-5-|3--5--5--5-5---|
|6-6--4----4-4-|2--4--4-4-xx|-6-6--4---4-4-|2--4--6--6-6---|
|--------------|------------|--------------|---------------|x2
|--------------|------------|--------------|---------------|
|--------------|------------|--------------|---------------|

     "Oh yeah,  life goes on ...


_____________________________VOCALS AND DRUMS____________________________


Interlude (Acoustic Guitar)

              *let ring(fifth string only)     *
|-------------------|---------------|-----------------|--------------|
|2-3-2-3/5-----5-xx-|-3---3--5--5-5-|2-3-2-3/5---5-xx-|3---3--2------|
|2-2-2-2/4-----4-xx-|-2---2--4--6-4-|2-2-2-2/4---4-xx-|2---2--2------|
|2-4-2-4/6-----6-xx-|-4---4--6--6-6-|2-4-2-4/6---6-xx-|4---4--2------|
|0-0-0-0-----0-0~---|-0---0--0--0-0-|0-0-0-0---0-0----|0---0--0------|
|-------------------|---------------|-----------------|--------------|

Chorus (Acoustic Guitar)


|5-7--4----4-4-|2--4--4-4-xx|-5-7--4---4-4-|2--4--5--5-5---|
|5-5--5----5-5-|3--5--5-5-xx|-5-5--5---5-5-|3--5--5--5-5---|
|6-6--4----4-4-|2--4--4-4-xx|-6-6--4---4-4-|2--4--6--6-6---|
|--------------|------------|--------------|---------------|x2
|--------------|------------|--------------|---------------|
|--------------|------------|--------------|---------------|


Outro -Part 1 (Acoustic Guitar)
  - Play this part very lightly!

       *            *
|-------------|--------------|---------------|----------------|
|-5--5-5---5--|-3---5---5----|-5--5-5---5----|-3-3--2~--------|
|-6--6-4-----4|-2---4-----4--|-6--6-4-----4--|-2-2--2~--------|
|-7--7-6------|-4---6--------|-7--7-6--------|-4-4--2~--------|
|-0--0-0------|-0---0-------0|-0--0-0-------0|-0-0--0~--------|
|-------------|--------------|---------------|----------------|


Outro -Part 2 (Electric w/ distortion and acoustic guitar)

pm                         ..        ...
|5--4--4-|-5--4--5--4-|-2--------|---------------------|
|5--5--5-|-5--5--5--5-|-3--------|---------------------|
|6--4--4-|-6--4--6--4-|-2--------|---------------------|
|7--6--6-|-7--6--7--6-|-4--0000--|---000000------------|
|0--0--0-|-0--0--0--0-|-0--------|---------------------|
|--------|------------|----------|---------------------|

Please note that you can use a AC-3 BOSS pedal with your electric guitar to make it 
acoustic!

I am 100% rite on this tab! If you have any questions, contact me at 
.Plz rate and have fun playin this!
            
Submit corrections



        Jack And Diane lessons Hard to play? Try these video lessons and learn fast Jack And Diane lessons
        
↑ Back to top | Tablatures and chords for acoustic guitar and electric guitar, ukulele, drums are parodies/interpretations of the original songs. You may use it for private study, scholarship, research or language learning purposes only